Oops, an error
Loading. Please wait.

Thoughtless Tab

version 5
version 5

Whole song

Interactive

676 views 1 this week
no commentswrite comment
1 2 3 4 5
please rate
add to favorites
launch autoscroll
font size
0
reset
how to read this tab
guitar tuner
Autoscroll
slow
fast
+/-
esc
set tempo
stop
Help us to improve Ultimate-Guitar.com Take our survey!
×
Author
Evanescence

Thoughtless (live version)


Piano Intro


162 BPM


Guitar 1

Tuning: D# A# F# C# G# C#


|-----------------|------------------|------------------|---------------------|
|-----------------|------------------|------------------|---------------------|
|-----------------|------------------|------------------|---------------------|
|0-0-3-0-10-----0-|0-0-10-0-10-----0-|0-0-12-0-12-----0-|0-0-12-0-13-13-13-13-|
|0-0-3-0-10-----0-|0-0-10-0-10-----0-|0-0-12-0-12-----0-|0-0-12-0-13-13-13-13-|
|0-0-3-0-10-----0-|0-0-10-0-10-----0-|0-0-12-0-12-----0-|0-0-12-0-13-13-13-13-|
                *  *               *  *               *  *

|------------------|------------------|------------------|---------------------|
|------------------|------------------|------------------|---------------------|
|------------------|------------------|------------------|---------------------|
|-----3-0-10-----0-|0-0-10-0-10-----0-|0-0-12-0-12-----0-|0-0-12-0-13-13-13-13-| x5
|-----3-0-10-----0-|0-0-10-0-10-----0-|0-0-12-0-12-----0-|0-0-12-0-13-13-13-13-|
|13\0-3-0-10-----0-|0-0-10-0-10-----0-|0-0-12-0-12-----0-|0-0-12-0-13-13-13-13-|
                 *  *               *  *               *  *

|-----------------|----------------|----------------|----------------|
|-----------------|----------------|----------------|----------------|
|-----------------|----------------|----------------|----------------|
|-----3-3-3-4-4-4-|3---------------|--3-3-3-3-4-4-4-|1-1-1-1-1-1-1-1-|
|-----3-3-3-4-4-4-|3---------------|--3-3-3-3-4-4-4-|1-1-1-1-1-1-1-1-|
|13\3-3-3-3-4-4-4-|3---------------|--3-3-3-3-4-4-4-|1-1-1-1-1-1-1-1-|


|----------------|----------------|----------------|----------------|
|----------------|----------------|----------------|----------------|
|----------------|----------------|----------------|----------------|
|--3-3-3-3-4-4-4-|3---------------|--3-3-3-3-4-4-4-|2-----2-2-2-2---|
|--3-3-3-3-4-4-4-|3---------------|--3-3-3-3-4-4-4-|2-----2-2-2-2---|
|--3-3-3-3-4-4-4-|3---------------|--3-3-3-3-4-4-4-|2-----2-2-2-2---|


|----------------|----------------|----------------|----------------|
|----------------|----------------|----------------|----------------|
|----------------|----------------|----------------|----------------|
|5-5-5---5-5---5-|5-5-5---5-5---5-|8-8-8---8-8---8-|8-8-8---8-8---8-|
|5-5-5---5-5---5-|5-5-5---5-5---5-|8-8-8---8-8---8-|8-8-8---8-8---8-|
|5-5-5---5-5---5-|5-5-5---5-5---5-|8-8-8---8-8---8-|8-8-8---8-8---8-|
         *     *          *     *          *     *          *     *

|----------------|----------------|----------------|----------------|
|----------------|----------------|----------------|----------------|
|----------------|----------------|----------------|----------------|
|3-3-3---3-3---3-|3-3-3---3-3---3-|1-1-1---1-1---1-|1-1-1---3-3-3-3-|
|3-3-3---3-3---3-|3-3-3---3-3---3-|1-1-1---1-1---1-|1-1-1---3-3-3-3-| 
|3-3-3---3-3---3-|3-3-3---3-3---3-|1-1-1---1-1---1-|1-1-1---3-3-3-3-|
         *     *          *     *          *     *

|----------------|----------------|----------------|----------------|
|----------------|----------------|----------------|----------------|
|----------------|----------------|----------------|----------------|
|5-5-5---5-5---5-|5-5-5---5-5---5-|8-8-8---8-8---8-|8-8-8---8-8---8-|
|5-5-5---5-5---5-|5-5-5---5-5---5-|8-8-8---8-8---8-|8-8-8---8-8---8-|
|5-5-5---5-5---5-|5-5-5---5-5---5-|8-8-8---8-8---8-|8-8-8---8-8---8-|
         *     *          *     *          *     *          *     *

|----------------|----------------|----------------|----------------|
|----------------|----------------|----------------|----------------|
|----------------|----------------|----------------|----------------|
|3-3-3---3-3---3-|3-3-3---3-3---3-|1-1-1---1-1---1-|1-1-1---3-3-3-3-|
|3-3-3---3-3---3-|3-3-3---3-3---3-|1-1-1---1-1---1-|1-1-1---3-3-3-3-| 
|3-3-3---3-3---3-|3-3-3---3-3---3-|1-1-1---1-1---1-|1-1-1---3-3-3-3-|
         *     *          *     *          *     *

|-----------------|------------------|------------------|---------------------|
|-----------------|------------------|------------------|---------------------|
|-----------------|------------------|------------------|---------------------|
|0-0-3-0-10-----0-|0-0-10-0-10-----0-|0-0-12-0-12-----0-|0-0-12-0-13-13-13-13-|
|0-0-3-0-10-----0-|0-0-10-0-10-----0-|0-0-12-0-12-----0-|0-0-12-0-13-13-13-13-|
|0-0-3-0-10-----0-|0-0-10-0-10-----0-|0-0-12-0-12-----0-|0-0-12-0-13-13-13-13-|
                *  *               *  *               *  *

|------------------|------------------|------------------|---------------------|
|------------------|------------------|------------------|---------------------|
|------------------|------------------|------------------|---------------------|
|-----3-0-10-----0-|0-0-10-0-10-----0-|0-0-12-0-12-----0-|0-0-12-0-13-13-13-13-| x3
|-----3-0-10-----0-|0-0-10-0-10-----0-|0-0-12-0-12-----0-|0-0-12-0-13-13-13-13-|
|13\0-3-0-10-----0-|0-0-10-0-10-----0-|0-0-12-0-12-----0-|0-0-12-0-13-13-13-13-|
                 *  *               *  *               *  *

|-----------------|----------------|----------------|----------------|
|-----------------|----------------|----------------|----------------|
|-----------------|----------------|----------------|----------------|
|-----3-3-3-4-4-4-|3---------------|--3-3-3-3-4-4-4-|1-1-1-1-1-1-1-1-|
|-----3-3-3-4-4-4-|3---------------|--3-3-3-3-4-4-4-|1-1-1-1-1-1-1-1-|
|13\3-3-3-3-4-4-4-|3---------------|--3-3-3-3-4-4-4-|1-1-1-1-1-1-1-1-|


|----------------|----------------|----------------|----------------|
|----------------|----------------|----------------|----------------|
|----------------|----------------|----------------|----------------|
|--3-3-3-3-4-4-4-|3---------------|--3-3-3-3-4-4-4-|2-----2-2-2-2---|
|--3-3-3-3-4-4-4-|3---------------|--3-3-3-3-4-4-4-|2-----2-2-2-2---|
|--3-3-3-3-4-4-4-|3---------------|--3-3-3-3-4-4-4-|2-----2-2-2-2---|


|----------------|----------------|----------------|----------------|
|----------------|----------------|----------------|----------------|
|----------------|----------------|----------------|----------------|
|5-5-5---5-5---5-|5-5-5---5-5---5-|8-8-8---8-8---8-|8-8-8---8-8---8-|
|5-5-5---5-5---5-|5-5-5---5-5---5-|8-8-8---8-8---8-|8-8-8---8-8---8-|
|5-5-5---5-5---5-|5-5-5---5-5---5-|8-8-8---8-8---8-|8-8-8---8-8---8-|
         *     *          *     *          *     *          *     *

|----------------|----------------|----------------|----------------|
|----------------|----------------|----------------|----------------|
|----------------|----------------|----------------|----------------|
|3-3-3---3-3---3-|3-3-3---3-3---3-|1-1-1---1-1---1-|1-1-1---3-3-3-3-|
|3-3-3---3-3---3-|3-3-3---3-3---3-|1-1-1---1-1---1-|1-1-1---3-3-3-3-| 
|3-3-3---3-3---3-|3-3-3---3-3---3-|1-1-1---1-1---1-|1-1-1---3-3-3-3-|
         *     *          *     *          *     *

|----------------|----------------|----------------|----------------|
|----------------|----------------|----------------|----------------|
|----------------|----------------|----------------|----------------|
|5-5-5---5-5---5-|5-5-5---5-5---5-|8-8-8---8-8---8-|8-8-8---8-8---8-|
|5-5-5---5-5---5-|5-5-5---5-5---5-|8-8-8---8-8---8-|8-8-8---8-8---8-|
|5-5-5---5-5---5-|5-5-5---5-5---5-|8-8-8---8-8---8-|8-8-8---8-8---8-|
         *     *          *     *          *     *          *     *

|----------------|----------------|----------------|----------------|
|----------------|----------------|----------------|----------------|
|----------------|----------------|----------------|----------------|
|3-3-3---3-3---3-|3-3-3---3-3---3-|1-1-1---1-1---1-|1-1-1---3-3-3-3-|
|3-3-3---3-3---3-|3-3-3---3-3---3-|1-1-1---1-1---1-|1-1-1---3-3-3-3-| 
|3-3-3---3-3---3-|3-3-3---3-3---3-|1-1-1---1-1---1-|1-1-1---3-3-3-3-|
         *     *          *     *          *     *

|----------------|----------------|------------------|---------------------|
|----------------|----------------|------------------|---------------------|
|----------------|----------------|------------------|---------------------|
|----------------|--------------0-|0-0-12-0-12-----0-|0-0-12-0-13-13-13-13-|
|----------------|--------------0-|0-0-12-0-12-----0-|0-0-12-0-13-13-13-13-|
|----------------|--------------0-|0-0-12-0-12-----0-|0-0-12-0-13-13-13-13-|
                                *  *               *  *

|------------------|------------------|------------------|---------------------|
|------------------|------------------|------------------|---------------------|
|------------------|------------------|------------------|---------------------|
|-----3-0-10-----0-|0-0-10-0-10-----0-|0-0-12-0-12-----0-|0-0-12-0-13-13-13-13-| x3
|-----3-0-10-----0-|0-0-10-0-10-----0-|0-0-12-0-12-----0-|0-0-12-0-13-13-13-13-|
|13\0-3-0-10-----0-|0-0-10-0-10-----0-|0-0-12-0-12-----0-|0-0-12-0-13-13-13-13-|
                 *  *               *  *               *  *

|-----------------|------------------|------------------|---------------------|
|-----------------|------------------|------------------|---------------------|
|-----------------|------------------|------------------|---------------------|
|0-0-3-0-10-----0-|0-0-10-0-10-----0-|0-0-12-0-12-----0-|0-0-12-0-13-13-13-13-|
|0-0-3-0-10-----0-|0-0-10-0-10-----0-|0-0-12-0-12-----0-|0-0-12-0-13-13-13-13-|
|0-0-3-0-10-----0-|0-0-10-0-10-----0-|0-0-12-0-12-----0-|0-0-12-0-13-13-13-13-|
                *  *               *  *               *  *

|------------------|------------------|------------------|---------------------|
|------------------|------------------|------------------|---------------------|
|------------------|------------------|------------------|---------------------|
|-----3-0-10-----0-|0-0-10-0-10-----0-|0-0-12-0-12-----0-|0-0-12-0-13-13-13-13-| x3
|-----3-0-10-----0-|0-0-10-0-10-----0-|0-0-12-0-12-----0-|0-0-12-0-13-13-13-13-|
|13\0-3-0-10-----0-|0-0-10-0-10-----0-|0-0-12-0-12-----0-|0-0-12-0-13-13-13-13-|
                 *  *               *  *               *  *

|----------------|----------------|----------------|----------------|
|----------------|----------------|----------------|----------------|
|----------------|----------------|----------------|----------------|
|----------------|----------------|0---------------|----------------|
|----------------|----------------|0---------------|----------------|
|----------------|----------------|0---------------|----------------|
                                   fade in

|----------------|----------------|----------------|----------------|
|----------------|----------------|----------------|----------------|
|----------------|----------------|----------------|----------------|
|5-5-5---5-5---5-|5-5-5---5-5---5-|8-8-8---8-8---8-|8-8-8---8-8---8-|
|5-5-5---5-5---5-|5-5-5---5-5---5-|8-8-8---8-8---8-|8-8-8---8-8---8-|
|5-5-5---5-5---5-|5-5-5---5-5---5-|8-8-8---8-8---8-|8-8-8---8-8---8-|
         *     *          *     *          *     *          *     *

|----------------|----------------|----------------|----------------|
|----------------|----------------|----------------|----------------|
|----------------|----------------|----------------|----------------|
|3-3-3---3-3---3-|3-3-3---3-3---3-|1-1-1---1-1---1-|1-1-1---3-3-3-3-|
|3-3-3---3-3---3-|3-3-3---3-3---3-|1-1-1---1-1---1-|1-1-1---3-3-3-3-| 
|3-3-3---3-3---3-|3-3-3---3-3---3-|1-1-1---1-1---1-|1-1-1---3-3-3-3-|
         *     *          *     *          *     *

|----------------|----------------|----------------|----------------|
|----------------|----------------|----------------|----------------|
|----------------|----------------|----------------|----------------|
|5-5-5---5-5---5-|5-5-5---5-5---5-|8-8-8---8-8---8-|8-8-8---8-8---8-|
|5-5-5---5-5---5-|5-5-5---5-5---5-|8-8-8---8-8---8-|8-8-8---8-8---8-|
|5-5-5---5-5---5-|5-5-5---5-5---5-|8-8-8---8-8---8-|8-8-8---8-8---8-|
         *     *          *     *          *     *          *     *

|----------------|----------------|----------------|----------------|
|----------------|----------------|----------------|----------------|
|----------------|----------------|----------------|----------------|
|3-3-3---3-3---3-|3-3-3---3-3---3-|1-1-1---1-1---1-|1-1-1---3-3-3-3-|
|3-3-3---3-3---3-|3-3-3---3-3---3-|1-1-1---1-1---1-|1-1-1---3-3-3-3-| 
|3-3-3---3-3---3-|3-3-3---3-3---3-|1-1-1---1-1---1-|1-1-1---3-3-3-3-|
         *     *          *     *          *     *
|----------------|----------------|----------------|----------------|
|----------------|----------------|----------------|----------------|
|----------------|----------------|----------------|----------------|
|5-5-5---5-5---5-|5-5-5---5-5---5-|8-8-8---8-8---8-|8-8-8---8-8---8-|
|5-5-5---5-5---5-|5-5-5---5-5---5-|8-8-8---8-8---8-|8-8-8---8-8---8-|
|5-5-5---5-5---5-|5-5-5---5-5---5-|8-8-8---8-8---8-|8-8-8---8-8---8-|
         *     *          *     *          *     *          *     *

|----------------|----------------|----------------|----------------|
|----------------|----------------|----------------|----------------|
|----------------|----------------|----------------|----------------|
|3-3-3---3-3---3-|3-3-3---3-3---3-|1-1-1---1-1---1-|1-1-1---3-3-3-3-|
|3-3-3---3-3---3-|3-3-3---3-3---3-|1-1-1---1-1---1-|1-1-1---3-3-3-3-| 
|3-3-3---3-3---3-|3-3-3---3-3---3-|1-1-1---1-1---1-|1-1-1---3-3-3-3-|
         *     *          *     *          *     *

|----------------|----------------|----------------|----------------|
|----------------|----------------|----------------|----------------|
|----------------|----------------|----------------|----------------|
|5-5-5---5-5---5-|5-5-5---5-5---5-|8-8-8---8-8---8-|8-8-8---8-8---8-|
|5-5-5---5-5---5-|5-5-5---5-5---5-|8-8-8---8-8---8-|8-8-8---8-8---8-|
|5-5-5---5-5---5-|5-5-5---5-5---5-|8-8-8---8-8---8-|8-8-8---8-8---8-|
         *     *          *     *          *     *          *     *

|----------------|----------------|----------------|----------------|
|----------------|----------------|----------------|----------------|
|----------------|----------------|----------------|----------------|
|3-3-3---3-3---3-|3-3-3---3-3---3-|1-1-1---1-1---1-|1-1-1---3-3-3-3-|
|3-3-3---3-3---3-|3-3-3---3-3---3-|1-1-1---1-1---1-|1-1-1---3-3-3-3-| 
|3-3-3---3-3---3-|3-3-3---3-3---3-|1-1-1---1-1---1-|1-1-1---3-3-3-3-|
         *     *          *     *          *     *


Guitar 2

Tuning: D# A# F# C# G# C#


|-----------------|------------------|------------------|---------------------|
|-----------------|------------------|------------------|---------------------|
|-----------------|------------------|------------------|---------------------|
|0-0-3-0-10-----0-|0-0-10-0-10-----0-|0-0-12-0-12-----0-|0-0-12-0-13-13-13-13-|
|0-0-3-0-10-----0-|0-0-10-0-10-----0-|0-0-12-0-12-----0-|0-0-12-0-13-13-13-13-|
|0-0-3-0-10-----0-|0-0-10-0-10-----0-|0-0-12-0-12-----0-|0-0-12-0-13-13-13-13-|
                *  *               *  *               *  *

|------------------|------------------|------------------|---------------------|
|------------------|------------------|------------------|---------------------|
|------------------|------------------|------------------|---------------------|
|-----3-0-10-----0-|0-0-10-0-10-----0-|0-0-12-0-12-----0-|0-0-12-0-13-13-13-13-| x5
|-----3-0-10-----0-|0-0-10-0-10-----0-|0-0-12-0-12-----0-|0-0-12-0-13-13-13-13-|
|13\0-3-0-10-----0-|0-0-10-0-10-----0-|0-0-12-0-12-----0-|0-0-12-0-13-13-13-13-|
                 *  *               *  *               *  *

|-----------------|----------------|----------------|----------------|
|-----------------|----------------|----------------|----------------|
|-----------------|----------------|----------------|----------------|
|-----3-3-3-4-4-4-|3---------------|--3-3-3-3-4-4-4-|1-1-1-1-1-1-1-1-|
|-----3-3-3-4-4-4-|3---------------|--3-3-3-3-4-4-4-|1-1-1-1-1-1-1-1-|
|13\3-3-3-3-4-4-4-|3---------------|--3-3-3-3-4-4-4-|1-1-1-1-1-1-1-1-|


|----------------|----------------|----------------|----------------|
|----------------|----------------|----------------|----------------|
|----------------|----------------|----------------|----------------|
|--3-3-3-3-4-4-4-|3---------------|--3-3-3-3-4-4-4-|2-----2-2-2-2---|
|--3-3-3-3-4-4-4-|3---------------|--3-3-3-3-4-4-4-|2-----2-2-2-2---|
|--3-3-3-3-4-4-4-|3---------------|--3-3-3-3-4-4-4-|2-----2-2-2-2---|


|------------------------|------------------------|------------------------|------------------------|
|------------------------|------------------------|------------------------|------------------------|
|------------------------|------------------------|------------------------|------------------------|
|12-12-12-12-12-12-12-12-|12-12-12-12-12-12-12-12-|15-15-15-15-15-15-15-15-|15-15-15-15-15-15-15-15-|
|------------------------|------------------------|------------------------|------------------------|
|10-10-10-10-10-10-10-10-|10-10-10-10-10-10-10-10-|13-13-13-13-13-13-13-13-|13-13-13-13-13-13-13-13-|


|------------------------|------------------------|----------------|----------------|
|------------------------|------------------------|----------------|----------------|
|------------------------|------------------------|----------------|----------------|
|10-10-10-10-10-10-10-10-|10-10-10-10-10-10-10-10-|8-8-8-8-8-8-8-8-|8-8-8-8-8-8-8-8-|
|------------------------|------------------------|----------------|----------------|
|-8--8--8--8--8--8--8--8-|-8--8--8--8--8--8--8--8-|6-6-6-6-6-6-6-6-|6-6-6-6-6-6-6-6-|


|------------------------|------------------------|------------------------|------------------------|
|------------------------|------------------------|------------------------|------------------------|
|------------------------|------------------------|------------------------|------------------------|
|12-12-12-12-12-12-12-12-|12-12-12-12-12-12-12-12/|15-15-15-15-15-15-15-15-|15-15-15-15-15-15-15-15\|
|------------------------|------------------------|------------------------|------------------------|
|10-10-10-10-10-10-10-10-|10-10-10-10-10-10-10-10/|13-13-13-13-13-13-13-13-|13-13-13-13-13-13-13-13\|


|------------------------|------------------------|----------------|--------------------|
|------------------------|------------------------|----------------|--------------------|
|------------------------|------------------------|----------------|--------------------|
|10-10-10-10-10-10-10-10-|10-10-10-10-10-10-10-10\|8-8-8-8-8-8-8-8-|8-8-8-8/10-10-10-10/|
|------------------------|------------------------|----------------|--------------------|
|-8--8--8--8--8--8--8--8-|-8--8--8--8--8--8--8--8\|6-6-6-6-6-6-6-6-|6-6-6-6/-8--8--8--8/|


|------------------------|------------------------|------------------------|------------------------|
|------------------------|------------------------|------------------------|------------------------|
|------------------------|------------------------|------------------------|------------------------|
|12-12-12-12-12-12-12-12-|12-12-12-12-12-12-12-12/|15-15-15-15-15-15-15-15-|15-15-15-15-15-15-15-15\|
|------------------------|------------------------|------------------------|------------------------|
|10-10-10-10-10-10-10-10-|10-10-10-10-10-10-10-10/|13-13-13-13-13-13-13-13-|13-13-13-13-13-13-13-13\|


|------------------------|------------------------|----------------|--------------------|
|------------------------|------------------------|----------------|--------------------|
|------------------------|------------------------|----------------|--------------------|
|10-10-10-10-10-10-10-10-|10-10-10-10-10-10-10-10\|8-8-8-8-8-8-8-8-|8-8-8-8/10-10-10-10-|
|------------------------|------------------------|----------------|--------------------|
|-8--8--8--8--8--8--8--8-|-8--8--8--8--8--8--8--8\|6-6-6-6-6-6-6-6-|6-6-6-6/-8--8--8--8-|


|-----------------|------------------|------------------|---------------------|
|-----------------|------------------|------------------|---------------------|
|-----------------|------------------|------------------|---------------------|
|0-0-3-0-10-----0-|0-0-10-0-10-----0-|0-0-12-0-12-----0-|0-0-12-0-13-13-13-13-|
|0-0-3-0-10-----0-|0-0-10-0-10-----0-|0-0-12-0-12-----0-|0-0-12-0-13-13-13-13-|
|0-0-3-0-10-----0-|0-0-10-0-10-----0-|0-0-12-0-12-----0-|0-0-12-0-13-13-13-13-|
                *  *               *  *               *  *

|------------------|------------------|------------------|---------------------|
|------------------|------------------|------------------|---------------------|
|------------------|------------------|------------------|---------------------|
|-----3-0-10-----0-|0-0-10-0-10-----0-|0-0-12-0-12-----0-|0-0-12-0-13-13-13-13-| x3
|-----3-0-10-----0-|0-0-10-0-10-----0-|0-0-12-0-12-----0-|0-0-12-0-13-13-13-13-|
|13\0-3-0-10-----0-|0-0-10-0-10-----0-|0-0-12-0-12-----0-|0-0-12-0-13-13-13-13-|
                 *  *               *  *               *  *

|-----------------|----------------|----------------|----------------|
|-----------------|----------------|----------------|----------------|
|-----------------|----------------|----------------|----------------|
|-----3-3-3-4-4-4-|3---------------|--3-3-3-3-4-4-4-|1-1-1-1-1-1-1-1-|
|-----3-3-3-4-4-4-|3---------------|--3-3-3-3-4-4-4-|1-1-1-1-1-1-1-1-|
|13\3-3-3-3-4-4-4-|3---------------|--3-3-3-3-4-4-4-|1-1-1-1-1-1-1-1-|


|----------------|----------------|----------------|----------------|
|----------------|----------------|----------------|----------------|
|----------------|----------------|----------------|----------------|
|--3-3-3-3-4-4-4-|3---------------|--3-3-3-3-4-4-4-|2-----2-2-2-2---|
|--3-3-3-3-4-4-4-|3---------------|--3-3-3-3-4-4-4-|2-----2-2-2-2---|
|--3-3-3-3-4-4-4-|3---------------|--3-3-3-3-4-4-4-|2-----2-2-2-2---|


|------------------------|------------------------|------------------------|------------------------|
|------------------------|------------------------|------------------------|------------------------|
|------------------------|------------------------|------------------------|------------------------|
|12-12-12-12-12-12-12-12-|12-12-12-12-12-12-12-12/|15-15-15-15-15-15-15-15-|15-15-15-15-15-15-15-15\|
|------------------------|------------------------|------------------------|------------------------|
|10-10-10-10-10-10-10-10-|10-10-10-10-10-10-10-10/|13-13-13-13-13-13-13-13-|13-13-13-13-13-13-13-13\|


|------------------------|------------------------|----------------|--------------------|
|------------------------|------------------------|----------------|--------------------|
|------------------------|------------------------|----------------|--------------------|
|10-10-10-10-10-10-10-10-|10-10-10-10-10-10-10-10\|8-8-8-8-8-8-8-8-|8-8-8-8/10-10-10-10/|
|------------------------|------------------------|----------------|--------------------|
|-8--8--8--8--8--8--8--8-|-8--8--8--8--8--8--8--8\|6-6-6-6-6-6-6-6-|6-6-6-6/-8--8--8--8/|


|------------------------|------------------------|------------------------|------------------------|
|------------------------|------------------------|------------------------|------------------------|
|------------------------|------------------------|------------------------|------------------------|
|12-12-12-12-12-12-12-12-|12-12-12-12-12-12-12-12/|15-15-15-15-15-15-15-15-|15-15-15-15-15-15-15-15\|
|------------------------|------------------------|------------------------|------------------------|
|10-10-10-10-10-10-10-10-|10-10-10-10-10-10-10-10/|13-13-13-13-13-13-13-13-|13-13-13-13-13-13-13-13\|


|------------------------|------------------------|----------------|--------------------|
|------------------------|------------------------|----------------|--------------------|
|------------------------|------------------------|----------------|--------------------|
|10-10-10-10-10-10-10-10-|10-10-10-10-10-10-10-10\|8-8-8-8-8-8-8-8-|8-8-8-8/10-10-10-10-|
|------------------------|------------------------|----------------|--------------------|
|-8--8--8--8--8--8--8--8-|-8--8--8--8--8--8--8--8\|6-6-6-6-6-6-6-6-|6-6-6-6/-8--8--8--8-|


|----------------|----------------|----------------|----------------|
|----------------|----------------|----------------|----------------|
|----------------|----------------|----------------|----------------|
|----------------|----------------|----------------|----------------| x3
|3-3-3-3-3-3-3-3-|3-3-3-3-3-3-3-3-|5-5-5-5-5-5-5-5-|5-5-5-5-5-5-5-5-|
|----------------|----------------|----------------|----------------|


|----------------|----------------|----------------|----------------|
|----------------|----------------|----------------|----------------|
|----------------|----------------|----------------|----------------|
|----------------|----------------|----------------|----------------|
|3-3-3-3-3-3-3-3-|3-3-3-3-3-3-3-3-|6-6-6-6-6-6-6-6-|6-6-6-6-6-6-6-6-|
|----------------|----------------|----------------|----------------|


|-----------------|------------------|------------------|---------------------|
|-----------------|------------------|------------------|---------------------|
|-----------------|------------------|------------------|---------------------|
|0-0-3-0-10-----0-|0-0-10-0-10-----0-|0-0-12-0-12-----0-|0-0-12-0-13-13-13-13-|
|0-0-3-0-10-----0-|0-0-10-0-10-----0-|0-0-12-0-12-----0-|0-0-12-0-13-13-13-13-|
|0-0-3-0-10-----0-|0-0-10-0-10-----0-|0-0-12-0-12-----0-|0-0-12-0-13-13-13-13-|
                *  *               *  *               *  *

|------------------|------------------|------------------|---------------------|
|------------------|------------------|------------------|---------------------|
|------------------|------------------|------------------|---------------------|
|-----3-0-10-----0-|0-0-10-0-10-----0-|0-0-12-0-12-----0-|0-0-12-0-13-13-13-13-| x3
|-----3-0-10-----0-|0-0-10-0-10-----0-|0-0-12-0-12-----0-|0-0-12-0-13-13-13-13-|
|13\0-3-0-10-----0-|0-0-10-0-10-----0-|0-0-12-0-12-----0-|0-0-12-0-13-13-13-13-|
                 *  *               *  *               *  *

|----------------|-----------------|----------------|----------------|
|----------------|-----------------|----------------|----------------|
|7---------------|10---------------|5---------------|----------------|
|7---------------|10---------------|5---------------|----------------|
|5---------------|-8---------------|3---------------|----------------|
|----------------|-----------------|----------------|----------------|


|------------------------|------------------------|------------------------|------------------------|
|------------------------|------------------------|------------------------|------------------------|
|------------------------|------------------------|------------------------|------------------------|
|12-12-12-12-12-12-12-12-|12-12-12-12-12-12-12-12/|15-15-15-15-15-15-15-15-|15-15-15-15-15-15-15-15\|
|------------------------|------------------------|------------------------|------------------------|
|10-10-10-10-10-10-10-10-|10-10-10-10-10-10-10-10/|13-13-13-13-13-13-13-13-|13-13-13-13-13-13-13-13\|


|------------------------|------------------------|----------------|--------------------|
|------------------------|------------------------|----------------|--------------------|
|------------------------|------------------------|----------------|--------------------|
|10-10-10-10-10-10-10-10-|10-10-10-10-10-10-10-10\|8-8-8-8-8-8-8-8-|8-8-8-8/10-10-10-10/|
|------------------------|------------------------|----------------|--------------------|
|-8--8--8--8--8--8--8--8-|-8--8--8--8--8--8--8--8\|6-6-6-6-6-6-6-6-|6-6-6-6/-8--8--8--8/|


|------------------------|------------------------|------------------------|------------------------|
|------------------------|------------------------|------------------------|------------------------|
|------------------------|------------------------|------------------------|------------------------|
|12-12-12-12-12-12-12-12-|12-12-12-12-12-12-12-12/|15-15-15-15-15-15-15-15-|15-15-15-15-15-15-15-15\|
|------------------------|------------------------|------------------------|------------------------|
|10-10-10-10-10-10-10-10-|10-10-10-10-10-10-10-10/|13-13-13-13-13-13-13-13-|13-13-13-13-13-13-13-13\|


|------------------------|------------------------|----------------|--------------------|
|------------------------|------------------------|----------------|--------------------|
|------------------------|------------------------|----------------|--------------------|
|10-10-10-10-10-10-10-10-|10-10-10-10-10-10-10-10\|8-8-8-8-8-8-8-8-|8-8-8-8/10-10-10-10-|
|------------------------|------------------------|----------------|--------------------|
|-8--8--8--8--8--8--8--8-|-8--8--8--8--8--8--8--8\|6-6-6-6-6-6-6-6-|6-6-6-6/-8--8--8--8-|


|----------------|----------------|----------------|----------------|
|----------------|----------------|----------------|----------------|
|----------------|----------------|----------------|----------------|
|5-5-5---5-5---5-|5-5-5---5-5---5-|8-8-8---8-8---8-|8-8-8---8-8---8-|
|5-5-5---5-5---5-|5-5-5---5-5---5-|8-8-8---8-8---8-|8-8-8---8-8---8-|
|5-5-5---5-5---5-|5-5-5---5-5---5-|8-8-8---8-8---8-|8-8-8---8-8---8-|
         *     *          *     *          *     *          *     *

|----------------|----------------|----------------|----------------|
|----------------|----------------|----------------|----------------|
|----------------|----------------|----------------|----------------|
|3-3-3---3-3---3-|3-3-3---3-3---3-|1-1-1---1-1---1-|1-1-1---3-3-3-3-|
|3-3-3---3-3---3-|3-3-3---3-3---3-|1-1-1---1-1---1-|1-1-1---3-3-3-3-| 
|3-3-3---3-3---3-|3-3-3---3-3---3-|1-1-1---1-1---1-|1-1-1---3-3-3-3-|
         *     *          *     *          *     *

|----------------|----------------|----------------|----------------|
|----------------|----------------|----------------|----------------|
|----------------|----------------|----------------|----------------|
|5-5-5---5-5---5-|5-5-5---5-5---5-|8-8-8---8-8---8-|8-8-8---8-8---8-|
|5-5-5---5-5---5-|5-5-5---5-5---5-|8-8-8---8-8---8-|8-8-8---8-8---8-|
|5-5-5---5-5---5-|5-5-5---5-5---5-|8-8-8---8-8---8-|8-8-8---8-8---8-|
         *     *          *     *          *     *          *     *

|----------------|----------------|----------------|----------------|
|----------------|----------------|----------------|----------------|
|----------------|----------------|----------------|----------------|
|3-3-3---3-3---3-|3-3-3---3-3---3-|1-1-1---1-1---1-|1-1-1---3-3-3-3-|
|3-3-3---3-3---3-|3-3-3---3-3---3-|1-1-1---1-1---1-|1-1-1---3-3-3-3-| 
|3-3-3---3-3---3-|3-3-3---3-3---3-|1-1-1---1-1---1-|1-1-1---3-3-3-3-|
         *     *          *     *          *     *
Suggest correction
What's this?
You can suggest a correction to this tab. Community and Mods will review your correction and vote to approve or reject it.
comments
We did not receive enough feedback on this tab! Please rate:
print report bad tab
1 2 3 4 5
guest
You may want to rate the tab now too:
select rating
Please do not post tabs as comments. Select "correction" instead!