Oops, an error
Loading. Please wait.

Tourniquet Tab

version 10
43 views 12 this week
no commentswrite comment
1 2 3 4 5
3 more votes to show rating
add to favorites
launch autoscroll
font size
0
reset
how to read this tab
guitar tuner
Autoscroll
slow
fast
+/-
esc
set tempo
stop
Help us to improve Ultimate-Guitar.com Take our survey!
×
Author
-----------------------------------------------------------------------------
                             TOURNIQUET - EVANESCENCE
-----------------------------------------------------------------------------

ALBUM: FALLEN

Tabbed by: Nico

Tuning: Standard EADGBe


[Intro/Chorus]


Guitar 1
e|------------------------------------------------------------------------------------------|
B|------------------------------------------------------------------------------------------|
G|------------------------------------------------------------------------------------------|
D|------------------------------------------------------------------------7-5-4-5/7-4h5p4---|
A|-----7-10-----7-9-----5------7-10-----7-9-----7------7-10-----7-9----5------------------5-|
E|-0-0------0-0-----0-0----0-0------0-0-----0-0----0-0------0-0-----0-0---------------------|(x2)
   . .      . .     . .    . .      . .     . . +  . .      . .     . .


Guitar 2 (played on the 2nd time of the intro) 
e|------------------------<7>---------------------------------------------------------------|
B|-------------<7>-------------------------<7>---------<7>----------------------|
G|<5>--------------------------------------------<5>---------<7>----------------|
D|-------------------------------------------------------------------<7>--------------------|
A|------------------------------------------------------------------------------------------------|
E|------------------------------------------------------------------------------------------------|


[Verse]

(Starts on the 2nd part of the first verse - The pattern changes on the last part of the last verse).

      E5
e|------------------------------------------|
B|------------------------------------------|
G|------------------------------------------|
D|----2-2-2-2---2-2-2--2-2--2-2-2--2--2-2-2-|
A|----2-2-2-2---2-2-2--2-2--2-2-2--2--2-2-2-|
E|----0-0-0-0---0-0-0--0-0--0-0-0--0--0-0-0-|
            .            .                .

   C5/G                   D5/A
e|------------------------------------------|
B|------------------------------------------|
G|-5-5-5-5-----5-5-5------7-----------------|
D|-5-5-5-5-----5-5-5------7-----------------|
A|-3-3-3-3-----3-3-3------5---6-----6~------|
E|-3-3-3-3-----3-3-3------5------7----------|
         .         .      .

[Bridge]

e|---------------------------|
B|---------------------------|
G|---------------------------| 
D|-2-2--2-2--2--2-2--2-2-----|
A|-2-2--2-2--2--2-2--2-2-8~\-|
E|-0-0--0-0--0--0-0--0-0-----|(x3)


e|---------------------------|
B|---------------------------|
G|---------------------------| 
D|-2-2--2-2--2--2-2----------|
A|-2-2--2-2--2--2-2-8-8-8-7\-|
E|-0-0--0-0--0--0-0----------|


e|---------------------------|
B|---------------------------|
G|---------------------------| 
D|-2-2--2-2--2--2-2--2-2-----|
A|-2-2--2-2--2--2-2--2-2-8~\-|
E|-0-0--0-0--0--0-0--0-0-----|(x3)


e|---------------------------|
B|---------------------------|
G|---------------------------| 
D|---------------------------|
A|------------------8-8-8-7~-|
E|---------------------------|


************************************
  
| /  slide up
| \  slide down
| h  hammer-on
| p  pull-off
| ~  vibrato
| +  Pinch harmonic
| <> Natural Harmonic
| x  Mute note
| .  Palm Mute


************************************
Suggest correction
Give kudos to tab author, rate the tab!
1 2 3 4 5
comments
print report bad tab
guest
You may want to rate the tab now too:
select rating
Wanna post a correction for this tab? Suggest correction