Oops, an error
Loading. Please wait.

Tourniquet Bass Tab

version 2
version 2

Whole song

873 views 3 this week
2 commentsread comments
1 2 3 4 5
please rate
add to favorites
launch autoscroll
font size
0
reset
guitar tuner
Autoscroll
slow
fast
+/-
esc
set tempo
stop
Help us to improve Ultimate-Guitar.com Take our survey!
×
Author
Difficulty
novice
Band: Evanescence
Song: Tourniquet
Album: Fallen (2003)
Tab version: 4-string normal tuning (EADG) 

INTRO (same riff as chorus) 						    X2
G|------------------|------------------|------------------|------------------|
D|------------------|------------------|------------------|------------------|
A|-----7-----7----7-|-----7-----7----7-|-----3-----3----3-|-----5-----5----5-|
E|-000---000---00---|-000---000---00---|-000---000---00---|-000---000---00---|

VERSE 1 (starts after “betrayal..”)          X2
G|-------------------------------------|
D|-------------------------------------|
A|-----------------33-3-33--5-5-5-7575-|
E|-00-0-00-0-0-00----------------------|

CHORUS X2
G|------------------|------------------|------------------|------------------|
D|------------------|------------------|------------------|------------------|
A|-----7-----7----7-|-----7-----7----7-|-----3-----3----3-|-----5-----5----5-|
E|-000---000---00---|-000---000---00---|-000---000---00---|-000---000---00---| 

VERSE 2 (starts after “lost for so long..”)  X3
G|-------------------------------------|
D|-------------------------------------|
A|-----------------33-3-33--5-5-5-7575-|
E|-00-0-00-0-0-00----------------------|

CHORUS X2
G|------------------|------------------|------------------|------------------|
D|------------------|------------------|------------------|------------------|
A|-----7-----7----7-|-----7-----7----7-|-----3-----3----3-|-----5-----5----5-|
E|-000---000---00---|-000---000---00---|-000---000---00---|-000---000---00---| 

BRIDGE X7
G|------------------|
D|------------------|
A|--------------7---| (hit last note 4 times @ 4th time)
E|-00000000000------|

CHORUS X6
G|------------------|------------------|------------------|------------------|
D|------------------|------------------|------------------|------------------|
A|-----7-----7----7-|-----7-----7----7-|-----3-----3----3-|-----5-----5----5-|
E|-000---000---00---|-000---000---00---|-000---000---00---|-000---000---00---|
Suggest correction
Give kudos to tab author, rate the tab!
1 2 3 4 5
comments
print report bad tab
2 comments total.
0 reply
Der Bassist 50 wrote on October 10 2010, 02:22 pm

Dont know who gave you one star but so i give you 5. It sounds mostly correct and complete.

0 reply
Der Bassist 50 wrote on October 10 2010, 02:49 pm

Bridge is not with 7 but 8. And the 4. time its:
G|---------------------|
D|---------------------|
A|--------------8887---|
E|-00000000000---------|

guest
You may want to rate the tab now too:
select rating
Wanna post a correction for this tab? Suggest correction