Oops, an error
Loading. Please wait.

Tourniquet Bass Tab

version 3
version 3

Whole song

4,762 views 3 this week
1 commentread comment
1 2 3 4 5
x 4
add to favorites
launch autoscroll
font size
0
reset
guitar tuner
Autoscroll
slow
fast
+/-
esc
set tempo
stop
Help us to improve Ultimate-Guitar.com Take our survey!
×
Author
Difficulty
novice
-----------------------------------------------------------------
Tourniquet - Evanescence - Bass Tabs
-----------------------------------------------------------------
Tabbed By : Cas
e-mail: cas.92@hotmail.com
Tuning: Standard 4-String

>99% sure this is correct. There's variations at the endings of (1:00) and (1:56)<

| h  hammer-on
| p  pull-off

(0:21)
G|---------------------------------------------------------------|
D|---------------------------------------------------------------|
A|-----7--10-----7--9-----5----------7--10-----7--9-----5--------|
E|-0-0-------0-0------0-0--------0-0-------0-0------0-0----------| \
          .        .         .         .        .        .          >x2
G|---------------------------------------------------------------| /
D|-------------------------------------------4h5p4---------------|
A|-----7--10-----7--9-----5--------7-5-4-7-5-------5-------------|
E|-0-0-------0-0------0-0----------------------------------------|

-Break-

(1:00) {can't think of an easier way to tab it... Just listen and feel it out}
G|---------------------------------------------------------------|
D|---------------------------------------------------------------|
A|---------------------------------------------------------------| x2
E|--00-00---00-0--00---00-0-0-00-0---00-00---00-0---00-00-0-0-00-|

(1:19)
G|---------------------------------------------------------------|
D|---------------------------------------------------------------|
A|-----7--10-----7--9-----5----------7--10-----7--9-----5--------|
E|-0-0-------0-0------0-0--------0-0-------0-0------0-0----------| \
          .        .         .         .        .        .          >x2
G|---------------------------------------------------------------| /
D|-----------------------------------------4h5p4-----------------|
A|-----7-10-----7-9-----5--------7-5-4-7-5-------5---------------|
E|-0-0------0-0-----0-0------------------------------------------|

-Break-

(1:47)
G|---------------------------------------------------------------|
D|---------------------------------------------------------------|
A|---------------------------------------------------------------| 
E|--00-00---00-0--00---00-0-0-00-0---00-00---00-0---00-00-0-0-00-|

(1:56) {Same rhythm as the first riff}
G|---------------------------------------------------------------|
D|---------------------------------------------------------------|
A|---------------------------------------------------------------|
E|-0-0-0--0-0-0-0--0-0-0-0------0-0-0--0-0-0-0--0-0-0-0----------| \
          .        .         .         .        .        .          >x2
G|---------------------------------------------------------------| /
D|---------------------------------------------------------------|
A|-----3--3-----3--3-----3----------5--5-----5--5-----5----------|
E|-0-0------0-0------0-0--------0-0------0-0------0-0------------|


(2:15)
G|---------------------------------------------------------------|
D|---------------------------------------------------------------|
A|-----7--10-----7--9-----5----------7--10-----7--9-----5--------|
E|-0-0-------0-0------0-0--------0-0-------0-0------0-0----------| \
          .        .         .         .        .        .          >x2
G|---------------------------------------------------------------| /
D|-----------------------------------------4h5p4-----------------|
A|-----7-10-----7-9-----5--------7-5-4-7-5-------5---------------|
E|-0-0------0-0-----0-0------------------------------------------|

(2:34)
G|------------------------------------------------------------------|
D|------------------------------------------------------------------|
A|----------------8---------------8---------------8------------8887-|
E|-000-00-0-00-000--00-00-0-00-000--00-00-0-00-000--00-00-0-00------|

G|-----------------------------------------------------I---------|
D|----------------------------------------------------want-------|
A|----------------8---------------8------------7778----to---8887-|
E|-000-00-0-00-000--00-00-0-00-000--00-00-0-00--------die!-------|

(2:53)
G|---------------------------------------------------------------|
D|---------------------------------------------------------------|
A|-----7--10-----7--9-----5----------7--10-----7--9-----5--------|
E|-0-0-------0-0------0-0--------0-0-------0-0------0-0----------| \
          .        .         .         .        .        .          >x6
G|---------------------------------------------------------------| /
D|-----------------------------------------4h5p4-----------------|
A|-----7-10-----7-9-----5--------7-5-4-7-5-------5---------------|
E|-0-0------0-0-----0-0------------------------------------------|

-String Outro-


{E-mail me with any questions or corrections. Hope it helps ^^}

Suggest correction
comments
print report bad tab
1 comment total.
0 reply
Der Bassist 50 Oct 10, 2010 02:28 PM

I think courus part is not bass but guitar play. And verse is not complete.

guest
You may want to rate the tab now too:
select rating
Wanna post a correction for this tab? Suggest correction