Oops, an error
Loading. Please wait.

Tourniquet Tab

version 3
20,326 views 24 this week
6 commentsread comments
1 2 3 4 5
x 9
add to favorites
launch autoscroll
font size
0
reset
how to read this tab
guitar tuner
backing track
0:00
0:00
×
Best way to learn
"Tourniquet"
Autoscroll
slow
fast
+/-
esc
set tempo
stop
(guitar 1)
e|-------------------------|--------------------------|
B|-------------------------|--------------------------|
G|-------------------------|--------------------------|
D|-------------------------|--------------------------|
A|------7h10-----7h9-----5-|-----7h10-----7h9------5--|
E|--0-0------0-0-----0-0---|-0-0------0-0------0-0--|

(guitar 1)
e|-------------------------|--------------------------|
B|-------------------------|--------------------------|
G|-------------------------|--------------------------|
D|-------------------------|--7-5-4-4/7-5-4h5p4-------|
A|-----7h10-----7h9-----5--|--------------------5-----|
E|-0-0------0-0-----0-0----|--------------------------|

(guitar 1)
e|-------------------------|--------------------------|
B|-------------------------|--------------------------|
G|-------------------------|--------------------------|
D|-------------------------|--------------------------|
A|------7h10-----7h9-----5-|-----7h10-----7h9------5--|
E|--0-0------0-0-----0-0---|-0-0------0-0------0-0----|

(guitar 2)
e|--15-----14--------------|--------------------------|
B|------------------12-----|--*12*let ring through out|
G|-------------------------|--------------------------|
D|-------------------------|--------------------------|
A|-------------------------|--------------------------|
E|-------------------------|--------------------------|

(guitar 1)
e|-------------------------|--------------------------|
B|-------------------------|--------------------------|
G|-------------------------|--------------------------|
D|-------------------------|--7-5-4-4/7-5-4h5p4-------|
A|-----7h10-----7h9-----5--|--------------------5-----|
E|-0-0------0-0-----0-0----|--------------------------|

(guitar 2)
e|-14-----15---14-----8----|--------------------------|
B|-------------------------|------8---(let ring)------|
G|-------------------------|--------------------------|
D|-------------------------|--------------------------|
A|-------------------------|--------------------------|
E|-------------------------|--------------------------|

e|-------------------------|----------------------------------------------|
B|-------------------------|----------------------------------------------|
G|-------------------------|----------------------------------------------|
D|---2------2-----2--------|--2-2---2--2---2-2---2-2--2---(something)-----|
A|---2------2-----2--------|--2-2---2--2---2-2---2-2--2----(else here)----|
E|---2------3-----2--------|--2-2---2--2---2-2---2-2--3-------------------|

[Bridge]
( all the strumming is palm muted)
e|---------------------------| play
B|---------------------------| a bunch of
G|---------------------------| times 
D|-2-2---2--2--2-2--2--2-2-2-| and then stop when amy yells
A|-2-2---2--2--2-2--2--2-2-2-|
E|-2-2---2--2--2-2--2--2-2-3-| "I WANT TO DIEEEEE!!!!!!"



************************************

| h  Hammer-on
| p  Pull-off
| /  Slide up
| *  Natural harmonic

************************************
Suggest correction
comments
print report bad tab
6 comments total. Showing first comments.
0 reply
Spikez_ 10 Jun 13, 2004 08:00 PM

thanx u sound like a gr8 guy... havin fun with ur tabs... all the way! \m/

0 reply
Hippo158 95 Jun 13, 2004 08:00 PM

your welcome..great girl btw ;-)..oh I am having fun and I will for a long time!!!

+1 reply
EvanescenceTabs 1,183 Nov 15, 2008 08:45 PM

The intro to your version actually seems more correct than all the others, good I'll give you a 5 to bring it up a bit:D

guest
You may want to rate the tab now too:
select rating
Wanna post a correction for this tab? Suggest correction