Oops, an error
Loading. Please wait.

Tourniquet Tab

version 7
3,693 views 1 this week
no commentswrite comment
1 2 3 4 5
worth learning
x 6
add to favorites
launch autoscroll
font size
0
reset
how to read this tab
guitar tuner
Tab Pro tools
  • play this tab
  • loop segment
  • change instrument
  • show fretboard
  • metronome
Autoscroll
slow
fast
+/-
esc
set tempo
stop
Evanescence - Tourniquet
tabbed by: Headless_duck77
Tuning: B, Gb, B, E, Ab, Db

Intro guitar 1:
Db:-------------------------------------------------------------------------------------------
Ab:-------------------------------------------------------------------------------------------
E :------------------------------------------------0-3-----0-2---------------5-3-2-5-3-2h3p2--
B :----5-8-----5-7-----------5-8-----5-7-----------------------------3-----------------------3
Gb:--------------------8---------------------8------------------------------------------------
B :5-5-----5-5-----5-5---5-5-----5-5-----5-5---1-1-----1-1------1-1-----3-3-------------------
pm....     ...     ...   ...     ...     ...   ...     ...      ...     ...

Guitar 2:
Db:--18--17--22--17--18--17--13---
Ab:-----------------------------13
E :-------------------------------
B :-------------------------------
Gb:-------------------------------
B :-------------------------------

Verse1:
Db:-----------------------------------------------------------------
Ab:-----------------------------------------------------------------
E :-----------------------------------------------------------------
B :-5-5-5-5--5-5--5--5-5---5-5--5--5----5---1-1-1-1---1-1--1--3--3-3
Gb:-5-5-5-5--5-5--5--5-5---5-5--5--5----5---1-1-1-1---1-1--1--3--3-3
B :-5-5-5-5--5-5--5--5-5---5-5--5--5----5---1-1-1-1---1-1--1--3--3-3
pm  .......  ...     ...   ...                  ...   ...        ...

Chorus:
Db:--------------------------------------------------------------------------------------------
Ab:--------------------------------------------------------------------------------------------
E :-------------------------------------------------0-3-----0-2---------------5-3-2-5-3-2h3p2--
B :-----5-8-----5-7-----------5-8-----5-7-----------------------------3-----------------------3
Gb:---------------------8---------------------8------------------------------------------------
B :-5-5-----5-5-----5-5---5-5-----5-5-----5-5---1-1-----1-1------1-1-----3-3-------------------
pm ....     ...     ...   ...     ...     ...   ...     ...      ...     ...

Verse 2:
Db:-----------------------------------------------------------------
Ab:-----------------------------------------------------------------
E :-----------------------------------------------------------------
B :-5-5-5-5--5-5--5--5-5---5-5--5--5----5---1-1-1-1---1-1--1--3--3-3
Gb:-5-5-5-5--5-5--5--5-5---5-5--5--5----5---1-1-1-1---1-1--1--3--3-3
B :-5-5-5-5--5-5--5--5-5---5-5--5--5----5---1-1-1-1---1-1--1--3--3-3
pm  .......  ...     ...   ...                  ...   ...        ...

Chorus:
Db:--------------------------------------------------------------------------------------------
Ab:--------------------------------------------------------------------------------------------
E :-------------------------------------------------0-3-----0-2---------------5-3-2-5-3-2h3p2--
B :-----5-8-----5-7-----------5-8-----5-7-----------------------------3-----------------------3
Gb:---------------------8---------------------8------------------------------------------------
B :-5-5-----5-5-----5-5---5-5-----5-5-----5-5---1-1-----1-1------1-1-----3-3-------------------
pm ....     ...     ...   ...     ...     ...   ...     ...      ...     ...

Interlude:
Db:-------------------------------------------------------
Ab:-------------------------------------------------------
E :-------------------------------------------------------
B :--------------------------12-------------------------12
Gb:--------------------------10-------------------------10
B :--5-5--5-5--5--5-5--5-5-5----5-5--5-5--5--5-5--5-5-5---
pm   ...  ...  .  ...  .....    ...  ...  .  ...  .....

Db:---------------------------------------------------------
Ab:---------------------------------------------------------
E :---------------------------------------------------------
B :--------------------------12------------------12-12-12-11
Gb:--------------------------10------------------10-10-10-9-
B :--5-5--5-5--5--5-5--5-5-5----5-5--5-5--5--5-5------------

Db:-------------------------------------------------------
Ab:-------------------------------------------------------
E :-------------------------------------------------------
B :--------------------------12-------------------------12
Gb:--------------------------10-------------------------10
B :--5-5--5-5--5--5-5--5-5-5----5-5--5-5--5--5-5--5-5-5---
pm   ...  ...  .  ...  .....    ...  ...  .  ...  .....

Db:------------------------------------------
Ab:------------------------------------------
E :------------------------------------------
B :--------------------------12---12-12-12-11
Gb:--------------------------10---10-10-10-9-
B :--5-5--5-5--5--5-5--5-5-5-----------------

Chorus:
Db:--------------------------------------------------------------------------------------------
Ab:--------------------------------------------------------------------------------------------
E :-------------------------------------------------0-3-----0-2---------------5-3-2-5-3-2h3p2--
B :-----5-8-----5-7-----------5-8-----5-7-----------------------------3-----------------------3
Gb:---------------------8---------------------8------------------------------------------------
B :-5-5-----5-5-----5-5---5-5-----5-5-----5-5---1-1-----1-1------1-1-----3-3-------------------
pm ....     ...     ...   ...     ...     ...   ...     ...      ...     ...

Outro guitar 1:
Db:--------------------------------------------------------------------------------------------
Ab:--------------------------------------------------------------------------------------------
E :-------------------------------------------------0-3-----0-2---------------5-3-2-5-3-2h3p2--
B :-----5-8-----5-7-----------5-8-----5-7-----------------------------3-----------------------3
Gb:---------------------8---------------------8------------------------------------------------
B :-5-5-----5-5-----5-5---5-5-----5-5-----5-5---1-1-----1-1------1-1-----3-3-------------------
pm ....     ...     ...   ...     ...     ...   ...     ...      ...     ...
Guitar 2:
Db:--18--17--22--17--18--17--13---
Ab:-----------------------------13
E :-------------------------------
B :-------------------------------
Gb:-------------------------------
B :-------------------------------
comments
print report bad tab
I want to post or [tab]
guest
You may want to rate the tab now too:
select rating
Please do not post tabs as comments. Select "correction" instead!