Oops, an error
Loading. Please wait.

Tourniquet Tab

version 8
1,592 views 1 this week
1 commentread comment
1 2 3 4 5
accurate
x 4
add to favorites
launch autoscroll
font size
0
reset
how to read this tab
guitar tuner
Tab Pro tools
  • play this tab
  • loop segment
  • change instrument
  • show fretboard
  • metronome
×
Best way to learn
"Tourniquet"
Autoscroll
slow
fast
+/-
esc
set tempo
stop
Contributor
-----------------------------------------------------------------------------
                             tourniquet - Evanescence
-----------------------------------------------------------------------------
Tabbed by:landerguitarist
Email:neptune_kicker@yahoo.com

Tuning:Standard 

gtr1 intro
e|---------------------------------------------------------------------------
B|--------------------------------------------------------------------------
G|---------------------------------------------------------------------------
D|----2----5-----2--4-------0   2----5-------4---2---------------------------
A|---------------------------------------------------------------------------
E|---------------------------------------------------------------------------

e|---------------------------------------------------------------------------
B|---------------------------------------------------------------------------
G|---------------------------------------------------------------------------
D|-2----5---2---4--0----------7----5---4--------7----5--4/5/4----------------
A|--------------------------------------------------------------5------------
E|---------------------------------------------------------------------------
 chorus ( im dying )         praying
e|---------------------------------------------------------------------------
B|---------------------------------------------------------------------------
G|---------------------------------------------------------------------------
D|-2----------------2--------------------2--2-----------2--------------------
A|-2--x-x------x-x--2--------x-x----x-x--2--2-----x-x---2---------- ---------
E|-0--x-x------x-x--0--------x-x----x-x--0--0-----x-x---0--------------------
   bleeding                    and screaming
e|---------------------------------------------------------------------------
B|---------------------------------------------------------------------------
G|--5-------------------5-------7--------------------------------------------
D|--5-------------------5-------7--------------------------------------------
A|--3---x-x-----x--x----3-------5---x-x--6-----6-----(6)\--------------------
E|--3---x-x-----x--x----3-------5---x-x--------------------------------------
  Bridge before I WANT TO DIE!!   X3 
e|---------------------------------------------------------------------------
B|---------------------------------------------------------------------------
G|---------------------------------------------------------------------------
D|--------------------------------10------------------------------------ ---
A|-2-2---2-2----2----2-2----222----------------------------------- ----------
E|-0-0---0-0----0----0-0----000----8-----------------------------------------
 
e|---------------------------------------------------------------------------
B|---------------------------------------------------------------------------
G|---------------------------------------------------------------------------
D|-------------------------10--10---10----9--------------10---10---10-----9--
A|-22--22----2----22------------------------------x------------------------ -
E|-00--00----0----00--------8---8----8----7-------x-------8----8----8-----7--
                     

| ( ) Palm mute    
| /  slide up
| \  slide down
| h  hammer-on
| p  pull-off
| ~  vibrato
| +  harmonic
| x  Mute note
=============================================================================
comments
print report bad tab
1 comment total.
0 reply
ginger_snapd_ha wrote on December 28 2004, 12:00 am

it should be right guys, it looks like it was taken out of the book lol
.. shame on you landerguitarist.

I want to post or [tab]
guest
You may want to rate the tab now too:
select rating
Please do not post tabs as comments. Select "correction" instead!