Oops, an error
Loading. Please wait.

Weight Of The World Tab

version 2
version 2

Whole song

Interactive

15,291 views 24 this week
17 commentsread comments
1 2 3 4 5
excellent!
x 11
add to favorites
launch autoscroll
font size
0
reset
how to read this tab
guitar tuner
Autoscroll
slow
fast
+/-
esc
set tempo
stop
Help us to improve Ultimate-Guitar.com Take our survey!
×
Author
Difficulty
Tuning
intermediate
C# G# C# F# A# D#
----------------------------------------------------------------------------
                     WEIGHT OF THE WORLD - Evanescence
----------------------------------------------------------------------------
Tabbed by: Bristlehead
Email: bristlehead@gmail.com

Tuning: Drop Db

===================================Intro===================================

[guitar 1]
e|-------------------------------------------------------------------------|
B|-------------------------------------------------------------------------|
G|----------------------------------------------------------(2x)-----------|
D|-----2-----------2--3--0-----2-3-2-2-2------2-3-2-2-2--------------------|
A|-----2-----------2--3--0-----2-3-2-2-2------2-3-2-2-2--------------------|
E|-2-2-2-------2-2-2--3--0-----2-3-2-2-2------2-3-2-2-2--------------------|
   * *         * *

[guitar 2]  (second time)
e|-------------------------------------------------------------------------|
B|-------------------------------------------------------------------------|
G|-x-x-9--13--16--16-17-14------16-17-16-13-13-------9-10-9-9-9------------|
D|-------------------------------------------------------------------------|
A|-x-x-7--11--14--14-15-12------14-15-14-11-11-------7-8--7-7-7------------|
E|-------------------------------------------------------------------------|


===================================Intro===================================

[verse]
e|---------------------------------------|
B|---------------------------------------|
G|---------------------------------------|
D|--2-3-2-2-2-----2-3-2-2-2----(3x)------|
A|--2-2-2-2-2-----2-3-2-2-2--------------|
E|--2-3-2-2-2-----2-3-2-2-2--------------|

e|--------------------------------------------------------------|
B|--------------------------------------------------------------|
G|--------------------------------------------------------------|
D|-----2-----------2--3--0-----2-3-2-0-2------2-3-2-2-2---------|
A|-----2-----------2--3--0-----2-3-2-0-2------2-3-2-2-2---------|
E|-2-2-2-------2-2-2--3--0-----2-3-2-0-2------2-3-2-2-2---------|
   * *         * *

(Freefall, freefall, all through life...)


[Chorus] (rhythm not written out)

  If you love me...                           Then Let go of me
e|-------------------------------------------------------------------------|
B|-------------------------------------------------------------------------|
G|-------------------------------------------------------------------------|
D|--7----------------------3--------------------7-------------------3------|
A|--7----------------------3--------------------7-------------------3------|
E|--7----------------------3--------------------7-------------------3------|
   I won't be held down                     By who I          used       to
e|-------------------------------------------------------------------------|
B|-------------------------------------------------------------------------|
G|-------------------------------------------------------------------------|
D|--7----------------------3-------------------0---------------2-----------|
A|--7----------------------3-------------------0---------------2-----------|
E|--7----------------------3-------------------0---------------2-----------|


  Be...   (strumming is correct)
    1   &   2   &   3   &   4   &   1   &   2   &   3   &   4   &
e|-------------------------------------------------------------------------|
B|-------------------------------------------------------------------------|
G|-------------------------------------------------------------------------|
D|--2-2-2-3---0-2-----3---0-2-3-2-0-2-2-2-3---0-2-----3---0-2--------------|
A|--2-2-2-3---0-2-----3---0-2-3-2-0-2-2-2-3---0-2-----3---0-2--------------|
E|--2-2-2-3---0-2-----3---0-2-3-2-0-2-2-2-3---0-2-----3---0-2--------------|

    1   &   2   &   3   &   4   &   1   &   2   &   3   &   4   &
e|-------------------------------------------------------------------------|
B|-------------------------------------------------------------------------|
G|-------------------------------------------------------------------------|
D|--2-2-2-3---0-2-----3---0-2-3-2-0-2-2-2-3---0-2-----3---0-2-3------------|
A|--2-2-2-3---0-2-----3---0-2-3-2-0-2-2-2-3---0-2-----3---0-2-3------------|
E|--2-2-2-3---0-2-----3---0-2-3-2-0-2-2-2-3---0-2-----3---0-2-3------------|

[Verse]

[Chorus]


[Bridge]

Be......
    1   &   2   &   3   &   4   &   1   &   2   &   3   &   4   &
e|-------------------------------------------------------------------------|
B|-------------------------------------------------------------------------|
G|-------------------------------------------------------------------------|
D|--2-2-2-3---0-2-----3---0-2-3-2-0-2-2-2-3---0-2-----3---0-2--------------|
A|--2-2-2-3---0-2-----3---0-2-3-2-0-2-2-2-3---0-2-----3---0-2--------------|
E|--2-2-2-3---0-2-----3---0-2-3-2-0-2-2-2-3---0-2-----3---0-2--------------|

    1   &   2   &   3   &   4   &   1   &   2   &   3   &   4   &
e|-------------------------------------------------------------------------|
B|-------------------------------------------------------------------------|
G|--------------------------------------------------7----------------------|
D|--2-2-2-3---0-2-----3---0-2-3-2-0-0-----------------------------0--------|
A|--2-2-2-3---0-2-----3---0-2-3-2-0-0---------------5-------------0--------|
E|--2-2-2-3---0-2-----3---0-2-3-2-0-0-----------------------------0--------|

    1   &   2   &   3   &   4   &   1   &   2   &   3   &   4   &
e|-------------------------------------------------------------------------|
B|-------------------------------------------------------------------------|
G|-------------------------------------------------------------------------|
D|--2-2-2-3---0-2-----3---0-2-3-2-0-2-2-2-3---0-2-----3---0-2--------------|
A|--2-2-2-3---0-2-----3---0-2-3-2-0-2-2-2-3---0-2-----3---0-2--------------|
E|--2-2-2-3---0-2-----3---0-2-3-2-0-2-2-2-3---0-2-----3---0-2--------------|

    1   &   2   &   3   &   4   &   1   &   2   &   3   &   4   &
e|-------------------------------------------------------------------------|
B|-------------------------------------------------------------------------|
G|--------------------------------------------------7-----7-9--------------|
D|--2-2-2-3---0-2-----3---0-2-3-2-0-0---0-----0---0------------------------|
A|--2-2-2-3---0-2-----3---0-2-3-2-0-0---0-----0---0-5-----5-7--------------|
E|--2-2-2-3---0-2-----3---0-2-3-2-0-0---0-----0---0------------------------|


(The solo in the section is just a bunch of incoherent wah and effect, so I'm not going 
bother.  It's not the hard, so you can probably figure it out.)

[Acoustic Chorus]

The Chords:
e|--0-------------------0-----------------0--------------------------------|
B|--0----------6--------0--------6--------0--------6-------3------5--------|
G|--2----------5--------2--------5--------2--------5-------2------4--------|
D|--2----------3--------2--------3--------2--------3-------0------2--------|
A|--0----------3--------0--------3--------0--------3-------0------2--------|
E|-------------3-----------------3-----------------3-------0------2--------|

(on the last 4 chords this riff is played 4 times)
e|------------------------------------|
B|------------------------8-----------|
G|------------------------------------|
D|-----------7--9--10--9--------------|
A|------------------------------------|
E|------------------------------------|

[Chorus]


Here's the notes in the background

                                    trem.
e|--20--19------19--17----20--19---/19---------20--19---19--17-------------|
B|------20------20------------20------------20-----20---20-----------------|
G|----------------------------------------------------------------(etc...)-|
D|-------------------------------------------------------------------------|
A|-------------------------------------------------------------------------|
E|-------------------------------------------------------------------------|
Suggest correction
comments
print report bad tab
17 comments total. Showing first comments.
0 reply
Guitar-burner 43 wrote on October 14 2006, 12:55 pm

This tab is awesome, but there is one mistake. You have said it is in Drop b, but you have shown it as 'standard tuning'. It just might confuse beginners. But other than that its awesome.

-1 reply
Bristlehead 219 wrote on October 14 2006, 05:24 pm

I said it's In drop Db, and I only did that with the TAB staf because it was easier just to c/p.

0 reply
Brookaroo 10 wrote on October 23 2006, 11:55 am

Great tab!! I give it a 5

guest
You may want to rate the tab now too:
select rating
Please do not post tabs as comments. Select "correction" instead!