Oops, an error
Loading. Please wait.

What You Want Tab

version 1
version 1

Whole song

Interactive

29,089 views 15 this week
3 commentsread comments
1 2 3 4 5
excellent!
x 5
add to favorites
launch autoscroll
font size
0
reset
how to read this tab
guitar tuner
Tab Pro tools
  • play this tab
  • loop segment
  • change instrument
  • show fretboard
  • metronome
×
Best way to learn
"What You Want"
Autoscroll
slow
fast
+/-
esc
set tempo
stop
Contributor
Difficulty
Tuning
novice
B F# B E G# C#
Artist: Evanescence
Title: What You Want
Album: Evanescence

Tuning: (low to high) B F# B E G# C#

Tabbed by: FireReaverX


Verse
C#|-------------------------------------------------------------------------|
G#|-------------------------------------------------------------------------|
E |-------------------------------------------------------------------------|
B |-------------------------------------------------------------------------| 3x
F#|-5-5-5-----5-5-6-6-6-6-----3-3-5-5-5-5-----5-5-6-/12-10------------------|
B |-0-0-0-----0-0-0-0-0-0-----0-0-0-0-0-0-----0-0-0--------12-10-10-0-10h12-|


Pre-Chorus
C#|----------------------------------------------------------------------------------------------|
G#|----------------------------------------------------------------------------------------------|
E |------------------------------------------------------------------------------------10---12---|
B |------------------------------------------------------------------------------------10---12---|
F#|-10--10--10-10--10-10--10-10\--5--5--5-5--5-5--5-5\--8--8--8-8--8-8--8-8-------------8---10---|
B |--------------------------------------------------------------------------10--12--0-----------|


Chorus
C#|-----------------------------------------------------------------|
G#|-----------------------------------------------------------------|
E |-------------------------------------------------5-5-5-5-5-5-5-5-|
B |-0-0-0-0-0-0-0-0-0-0-0-0-0-0-0-0-3-3-3-3-3-3-3-3-5-5-5-5-5-5-5-5-|
F#|-0-0-0-0-0-0-0-0-0-0-0-0-0-0-0-0-3-3-3-3-3-3-3-3-3-3-3-3-3-3-3-3-|
B |-0-0-0-0-0-0-0-0-0-0-0-0-0-0-0-0-3-3-3-3-3-3-3-3-----------------|

C#|-----------------------------------------------------------------|
G#|-----------------------------------------------------------------|
E |-----------------------------------------------------------------|
B |-0-0-0-0-0-0-0-0-0-0-0-0-0-0-0-0-3-3-3-3-3-3-3-3-7-7-7-7-7-7-7-7-|
F#|-0-0-0-0-0-0-0-0-0-0-0-0-0-0-0-0-3-3-3-3-3-3-3-3-7-7-7-7-7-7-7-7-|
B |-0-0-0-0-0-0-0-0-0-0-0-0-0-0-0-0-3-3-3-3-3-3-3-3-7-7-7-7-7-7-7-7-|


Verse
Pre-Chorus
Chorus


Bridge
C#|-------------------------------------------------------------------------------------|
G#|-------------------------------------------------------------------------------------|
E |-------------------------------------------------------------------------------------|
B |-0------0------0------3------3------3------5------5------5------8------8------8------|
F#|-0------0------0------3------3------3------5------5------5------8------8------8------|
B |-0---00-0---00-0---00-3---33-3---33-3---33-5---55-5---55-5---55-8---88-8---88-8---88-|
        ..     ..     ..     ..     ..     ..     ..     ..     ..     ..     ..     ..

C#|-------------------------------------------------------------------------------------|
G#|-------------------------------------------------------------------------------------|
E |-------------------------------------------------------------------------------------|
B |-0------0------0------3------3------3------5------5------5------7------7------7------|
F#|-0------0------0------3------3------3------5------5------5------7------7------7------|
B |-0---00-0---00-0---00-3---33-3---33-3---33-5---55-5---55-5---55-7---77-7---77-7---77-|
        ..     ..     ..     ..     ..     ..     ..     ..     ..     ..     ..     ..

C#|-----------------------------------------------------------------------------------------|
G#|-----------------------------------------------------------------------------------------|
E |-7-7-7-7-7-7-7-7-10-10-10-10-10-10-10-10-12-12-12-12-12-12-12-12-15-15-15-15-15-15-15-15-|
B |-----------------------------------------------------------------------------------------|
F#|-5-5-5-5-5-5-5-5--8--8--8--8--8--8--8--8-10-10-10-10-10-10-10-10-13-13-13-13-13-13-13-13-|
B |-----------------------------------------------------------------------------------------|

C#|-------------------------------------------------|
G#|-------------------------------------------------|
E |-14-14-14-14-14-14-14-14-17-17-17-17-17-17-17-17-|
B |-------------------------------------------------|
F#|-12-12-12-12-12-12-12-12-15-15-15-15-15-15-15-15-|
B |-------------------------------------------------|


Chorus


Ending
C#|----------------------------------------------------------------------------|
G#|----------------------------------------------------------------------------|
E |----------------------------------------------------------------------------|
B |----------------------------------------------------------------------------|
F#|-5-5-5-----5-5-6-6-6-6-----3-3-5-5-5-5-----5-5-6-/12-10---------------------|
B |-0-0-0-----0-0-0-0-0-0-----0-0-0-0-0-0-----0-0-0--------12-10-10-0-10-12\---|


Note: To play the variation in the second and third choruses, first slide down from the 12th fret
and then palm mute the same way as in the bridge section.


| /  slide up
| \  slide down
| h  hammer-on
| .  palm mute
===============================================================================
comments
print report bad tab
3 comments total.
0 reply
Estrela wrote on October 14 2011, 04:49 am

Is there an other way to play that song without dropping B (too low for my guitar :( )

+1 reply
FireReaverX wrote on October 14 2011, 05:26 am

Sure. In Drop D it would be something like:


Verse
E|--------------------------------------------------------------------|
B|--------------------------------------------------------------------|
G|-4-4-4-----4-4-5-5-5-5-----2-2-4-4-4-4-----4-4-5--------------------|
D|-4-4-4-----4-4-4-4-4-4-----4-4-4-4-4-4-----4-4-4--------------------|
A|-2-2-2-----2-2-2-2-2-2-----2-2-2-2-2-2-----2-2-2-/9-7---------------|
D|--------------------------------------------------------9-7-7-x-7h9-|

Chorus
E|-----------------------------------------------------------------|
B|-----------------------------------------------------------------|
G|-4-----------------------------------------------2---------------|
D|-4-------------------------------0---------------2---------------|
A|-2-------------------------------0---------------0---------------|
D|---------------------------------0-------------------------------|

E|-----------------------------------------------------------------|
B|-----------------------------------------------------------------|
G|-4---------------------------------------------------------------|
D|-4-------------------------------0---------------4---------------|
A|-2-------------------------------0---------------4---------------|
D|---------------------------------0---------------4---------------|


Basically, just move everything else from my tab 3 frets lower than written.

0 reply
silentskills wrote on February 3 2012, 10:46 am

Sounds very good. Even on drop D which is what I have my guitar tuned to.

I want to post or [tab]
guest
You may want to rate the tab now too:
select rating
Please do not post tabs as comments. Select "correction" instead!