Oops, an error
Loading. Please wait.

Where Will You Go Tab

version 1
version 1

Intro

Whole song

759 views 1 this week
no commentswrite comment
1 2 3 4 5
please rate
add to favorites
launch autoscroll
font size
0
reset
how to read this tab
guitar tuner
Autoscroll
slow
fast
+/-
esc
set tempo
stop
Help us to improve Ultimate-Guitar.com Take our survey!
×
Author
Difficulty
EVANESCENCE--WHERE WILL YOU GO
this is my first tab,,its not the whole song
please comment on corrections :)


E-------------------------------------------------|
B-------------------------------------------------|
G-------------------------------------------------|
D---5--------5--------6---------3-----3-----X2----|
A-----6-5-6----6-5-6----6-5-6-----6-5-------------|
E-------------------------------------------------|

---------------------------------------------------------------|
---------------------------------------------------------------|
---------------------------------------------------------------|
--55------------55----------66-----------33--------66----------|
------66-55-66-----66-55-66----66-55-66-----66-55--------------|
---------------------------------------------------------------|

---------------------------------------------------------------|
---------------------------------------------------------------|
---------------------------------------------------------------|
--55----------55----------66-----------33----------------------|
-----66-55-66----66-55-66----66-55-66-----66-55-33-------------|
---------------------------------------------------------------|

But wheeeere will you go...
-----------------------------------------------------------|
-----------------------------------------------------------|
-----------------------------------------------------------|
-----------------------------------------------------------|
---3~----6~------------------------------------------------|
---------------4~-------6~--7~--8~------4~--3~--4~--6------|

---------------------------------------------------------------|
---------------------------------------------------------------|
---------------------------------------------------------------|
--55------------55----------66-----------33--------66----------|
------66-55-66-----66-55-66----66-55-66-----66-55--------------|
---------------------------------------------------------------|

---------------------------------------------------------------|
---------------------------------------------------------------|
---------------------------------------------------------------|
--55----------55----------66-----------33----------------------|
-----66-55-66----66-55-66----66-55-66-----66-55-33-------------|
---------------------------------------------------------------|

sorry idk the rest
apart from the ending
--------------------------------------------------------------|
--------------------------------------------------------------|
---6-------6--------7--------4------7-------------------------|x1
-----7-6-7---7-6-7----7-6-7----7-6----------------------------|
--------------------------------------------------------------|
--------------------------------------------------------------|


--------------------------------------------------------------|
--------------------------------------------------------------|
----66----------66----------77-----------44-------------------|repeat
-------77-66-77----77-66-77----77-66-77-----77-66-44----------|X7
--------------------------------------------------------------|
--------------------------------------------------------------|
Suggest correction
Give kudos to tab author, rate the tab!
1 2 3 4 5
comments
print report bad tab
guest
You may want to rate the tab now too:
select rating
Wanna post a correction for this tab? Suggest correction