Oops, an error
Loading. Please wait.

Whisper Tab

version 1
version 1
28,612 views 51 this week
10 commentsread comments
1 2 3 4 5
excellent!
x 32
add to favorites
launch autoscroll
font size
0
reset
how to read this tab
guitar tuner
Tab Pro tools
  • play this tab
  • loop segment
  • change instrument
  • show fretboard
  • metronome
Autoscroll
slow
fast
+/-
esc
set tempo
stop
Whisper - Evanescence
Tabbed by Tinboy

Tuning - drop D

E B G D A D

Intro

|------------------------------------------------------------------------|
|------------------------------------------------------------------------|
|------------------------------------------------------------------------|
|------------------------------------------------------------------------| x2
|-----5-5-6----5-5-6------3-----5-5-6----5--8-6-5--5h6-3-----------------|
|---0--------0--------3h5-----0--------0---------------------------------|

Pre-chorus

|------------------------------------------------------------------------|
|------------------------------------------------------------------------|
|------------------------------------------------------------------------|
|------------------------------------------------------------------------|
|---5v/7v/10v\8v-(hold-note)---------------------------------------------|
|------------------------------------------------------------------------|

Chorus

|------------------------------------------------------------------------|
|------------------------------------------------------------------------|
|------------------------------------------------------------------------|
|---0--8-8--10---8--5--3-3-2--3-2-2--3-2-2--3-2-2--3-2-0-----------------| x2
|---0--8-8--10---8--5--3-3-2--3-2-2--3-2-2--3-2-2--3-2-0-----------------|
|---0--8-8--10---8--5--3-3-2--3-2-2--3-2-2--3-2-2--3-2-0-----------------|

Bridge

|------------------------------------------------------------------------|
|------------------------------------------------------------------------|
|------------------------------------------------------------------------|
|------------------------------------------------------------------------|
|-----5-5-6----5-5-6------3-----5-5-6----5--8-6-5--5h6-3-----------------|
|---0--------0--------3h5-----0--------0---------------------------------|

wait for 2 bars then go into:

Verse

|------------------------------------------------------------------------|
|------------------------------------------------------------------------|
|------------------------------------------------------------------------|
|------------------------------------------------------------------------| x2
|-----5-5-6----5-5-6------3-----5-5-6----5--8-6-5--5h6-3-----------------|
|---0--------0--------3h5-----0--------0---------------------------------|

Pre-chorus

|------------------------------------------------------------------------|
|------------------------------------------------------------------------|
|------------------------------------------------------------------------|
|------------------------------------------------------------------------|
|---5v/7v/10v\8v-(hold-note)---------------------------------------------|
|------------------------------------------------------------------------|

Chorus

|------------------------------------------------------------------------|
|------------------------------------------------------------------------|
|------------------------------------------------------------------------|
|---0--8-8--10---8--5--3-3-2--3-2-2--3-2-2--3-2-2--3-2-0-----------------| x2
|---0--8-8--10---8--5--3-3-2--3-2-2--3-2-2--3-2-2--3-2-0-----------------|
|---0--8-8--10---8--5--3-3-2--3-2-2--3-2-2--3-2-2--3-2-0-----------------|

Middle section

Strings transposed to guitar
|------------------------------------------------------------------------|
|------------------------------------------------------------------------|
|------------------------------------------------------------------------|
|---7p5---5-7------------------------------------------------------------|
|-------7----------------------------------------------------------------|
|------------------------------------------------------------------------|

Gtr. 1
|------------------------------------------------------------------------|
|------------------------------------------------------------------------|
|------------------------------------------------------------------------|
|------------------------------------------------------------------------| x2
|---5v/7v/10v\8v-(hold-note)---------------------------------------------|
|------------------------------------------------------------------------|
              ^ last time play 5th fret and hold

Gtr.2
|------------------------------------------------------------------------|
|------------------------------------------------------------------------|
|------------------------------------------------------------------------|
|------------------------------------------------------------------------| x4
|-----0-------0----------------------------------------------------------|
|---0-0-x-0-0-0----------------------------------------------------------|
PM  -     - -

Solo

|------------------------------------------------------------------------|
|------------------------------------------------------------------------|
|------------------------------------------------------------------------|
|---7-7-7-7p5-7/8-8-8-8\7-5-3h5---5-5-5-5p3-5/7-7-7-7\5-3h5--------------|
|------------------------------------------------------------------------|
|------------------------------------------------------------------------|

|------------------------------------------------------------------------|
|------------------------------------------------------------------------|
|------------------------------------------------------------------------|
|----3-3-3-3p2-3/5-5-5-5/3-2---3-2-2--3-2-2--3-2-2--3-2-2--3-2-2-0-------|
|------------------------------------------------------------------------|
|------------------------------------------------------------------------|

|------------------------------------------------------------------------|
|------------------------------------------------------------------------|
|------------------------------------------------------------------------|
|---0-0-0-2-3/5-5-5\3-3-2---7-7-7-8-7--10-10-10-8-7----------------------|
|------------------------------------------------------------------------|
|------------------------------------------------------------------------|

|------------------------------------------------------------------------|
|------------------------------------------------------------------------|
|------------------------------------------------------------------------|
|---3-3-3--5-5-7--2-2-2--3-3-5--7v (hold-note)---------------------------|
|------------------------------------------------------------------------|
|------------------------------------------------------------------------|

Chorus

|------------------------------------------------------------------------|
|------------------------------------------------------------------------|
|------------------------------------------------------------------------|
|---0--8-8--10---8--5--3-3-2--3-2-2--3-2-2--3-2-2--3-2-0-----------------| x2
|---0--8-8--10---8--5--3-3-2--3-2-2--3-2-2--3-2-2--3-2-0-----------------|
|---0--8-8--10---8--5--3-3-2--3-2-2--3-2-2--3-2-2--3-2-0-----------------|
             ^ first time after solo, come in on this note

Outro - repeat untill fade

|------------------------------------------------------------------------|
|------------------------------------------------------------------------|
|------------------------------------------------------------------------|
|------------------------------------------------------------------------|
|-----0-------0----------------------------------------------------------|
|---0-0-x-0-0-0----------------------------------------------------------|
PM  -     - -

that's all

email - tinboy50@hotmail.com
comments
print report bad tab
10 comments total. Showing first comments.
+3 reply
arkie87 wrote on March 20 2004, 12:00 am

everything is correct except the chord progression for the chorus:
0-8-10-0-8-5-3-2-2-3-2-2-3-2-2-3-2-0
0-8-10-0-8-5-3-2-2-3-2-2-3-2-2-3-2-0
0-8-10-0-8-5-3-2-2-3-2-2-3-2-2-3-2-0

0 reply
br3ath3_n0_m0r3 wrote on October 7 2004, 12:00 am

great job! and a great song! and a great band! ok.. you get the point

0 reply
TheUnholy wrote on March 24 2005, 12:00 am

Outstanding - you even transposed the strings. Well done 5/5 ...but I did hear somewhere it was drop D, then another semitone (halfstep) down, rather than just drop D - can anyone confirm or deny this please?

I want to post or [tab]
guest
You may want to rate the tab now too:
select rating
Please do not post tabs as comments. Select "correction" instead!