Oops, an error
Loading. Please wait.

Whisper tab

version 4
version 4
801 views 6 this week
2 commentsread comments
1 2 3 4 5
2 more votes to show rating
add to favorites
×
Save as Personal and add changes to this tab that will be seen only by you. Learn more ›
×
You can save this tab as Personal to edit and correct it or add notes. All changes will be seen only by you. Learn more »
launch autoscroll
font size
0
reset
how to read this tab
guitar tuner
edit
Autoscroll
slow
fast
+/-
esc
set tempo
stop
this is NOT the Whisper off of Evanescnences "Fallen" album. This is the version of the 
they recorded with BigWig Record Company and put on their EP "origin"...yes there is a difference


Intro:
E|--------------------------------------------------------------------|
B|--------------------------------------------------------------------|
G|--------------------------------------------------------------------|x2
D|--------------------------------------------------------------------|
A|----5---6p5---5---6p5-------3----5---6p5---8p6---6p5-3--------------|
D|--0---0-----0---0-----0-3-5----0---0-----0-----0--------------------|
    .   .     .   .     . . .    .   .     .

First Verse:
E|---------------------------------------------------------------|
B|---------------------------------------------------------------|
G|---------------------------------------------------------------|x2
D|---------------------------------------------------------------|
A|-----5---5-6p5---5---5---5-6p5---5---5-6p5---5---5---5-6p5--3--|
D|---0---0-------0---0---0-------0---0-------0---0---0-----------|
     .   .       .   .   .       .   .       .   .   .

Chorus:
E|---------------------------------------|
B|---------------------------------------|
G|---------------------------------------|x2
D|-0---3--5--0--3--5--2-22-3p2-222-3p2---|
A|-0---1--3--0--1--5--2-22-3p2-222-3p2---|
D|-0---------0-----5--2-22-3p2-222-3p2---|

Pre-Verse
E|----------------------------------|
B|----------------------------------|
G|----------------------------------|
D|-00-00-0-00-00-0-00-00-0-00-0000--|
A|-00-00-0-00-00-0-00-00-0-00-0000--|
D|-00-00-0-00-00-0-00-00-0-00-0000--|
  .. .. . .. .. . .. .. . .. ....

Verse 2:
E|--------------------------------------------------------------------|
B|--------------------------------------------------------------------|
G|--------------------------------------------------------------------|x4
D|--------------------------------------------------------------------|
A|----5---6p5---5---6p5-------3----5---6p5---8p6---6p5-3--------------|
D|--0---0-----0---0-----0-0-3----0---0-----0-----0--------------------|
    .   .     .   .     . . .    .   .     .

E|------------------------|
B|------------------------|
G|------------------------|
D|------------------------|
A|---5~---7~---10~---8~---|
D|------------------------|

Chorus

Bridge:
E|------------------------|
B|------------------------|
G|------------------------|
D|------------------------|
A|---5~---7~---10~---8~---|
D|------------------------|

Solo:
E|----------------------------------------------------------------------|
B|----------------------------------------------------------------------|
G|---7//14-14-14\12/14-1515151515-14--12-12-12-10-12-1414141414-12------|
D|---x//-x--x--x--x--x--x-x-x-x-x--x---x--x--x-x--x---x-x-x-x-x--x------|
A|---5//12-12-12\10/12-1313131313-12--10-10-10\8/10--1212121212-10------|
D|----------------------------------------------------------------------|

E|----------------------------------------------------------------------|
B|----------------------------------------------------------------------|
G|--101010-9-10-121212-10-9--10\9-10\9-10\9-10\9-10\999-----------------|
D|---x-x-x-x-x---x-x-x--x-x---x-x--x-x--x-x--x-x--x-xxx-----------------|
A|---8-8-8-7-8--101010--8-7---8\7--8\7--8\7--8\7--8\777-----------------|
D|----------------------------------------------------------------------|

E|----------------------------------------------------------------------|
B|----------------------------------------------------------------------|
G|---777-9-10-121212-10-9--141414-15-14--171717-15-14--101010-12-14-----|
D|---xxx-x-x---x-x-x-x--x---x-x-x--x--x---x-x-x--x--x--x-x-x---x--x-----|
A|---555-7-8--101010-8--7--121212-13-12--151515-13-12--8-8-8--10-12-----|
D|----------------------------------------------------------------------|

E|----------------------------------------------------------------------|
B|----------------------------------------------------------------------|
G|--999-10-12--14141414141414141414141414141414-------------------------|
D|--xxx-x---x---x-x-x-x-x-x-x-x-x-x-x-x-x-x-x-x--000--------------------|
A|--777-8--10--12121212121212121212121212121212--000--------------------|
D|-----------------------------------------------000--------------------|
                                                 ...

Chorus

thats it...i like this version of whisper better

hope you do too

special thanks to dark_falco3000 for help on getting the intro perfect.

            
            
Suggest correction
Creating personal tab
Creating personal tab
You can edit any tab online and save it as your Personal.

You can edit, replace or remove any tab part or add personal notes – all changes will be seen only by you.

Personal tabs can be accessed anytime from any device, even offline.
Learn more »
Give kudos to tab author, rate the tab!
1 2 3 4 5
comments
print report bad tab
2 comments total.
0 reply
dark_falco3000 627 Oct 01, 2006 03:09 AM

this is one of the closest tabs I've seen for whisper, and it's for the version on origin too! You're the only person who's actually bothered to notice the palm muted open D notes in the intro! But the tab is still kinda wrong... 4 stars I'd say

0 reply
dark_falco3000 627 Oct 01, 2006 03:10 AM

although personally I prefer the 2002 demo of whisper

guest
You may want to rate the tab now too:
select rating
Wanna post a correction for this tab? Suggest correction