Oops, an error
Loading. Please wait.

Whisper tab

version 5
version 5
2,314 views 3 this week
2 commentsread comments
1 2 3 4 5
x 3
add to favorites
×
Save as Personal and add changes to this tab that will be seen only by you. Learn more ›
×
You can save this tab as Personal to edit and correct it or add notes. All changes will be seen only by you. Learn more »
launch autoscroll
font size
0
reset
how to read this tab
guitar tuner
edit
Autoscroll
slow
fast
+/-
esc
set tempo
stop
This is a compilation of a few different versions of Whisper, so parts of it may sound 
Whisper from Origin, parts from Fallen, Demos, and some parts are some of the filler 
to Guitar. So, just a heads up if it's not exactly what you might find from them,
this is the version I play though =3

Guitar I&II tuned to Drop D

Intro:

Guitar I
E|--------------------------------------------------|
B|--------------------------------------------------|
G|--------------------------------------------------|
D|--------------------------------------------------|(x2)
A|---5--6p5---5--6p5-----3----5--6p5---5-8p6-5h6-3--|
D|-0--0-----0--0-----3h5----0--0-----0------0-------|
   .  .     .  .            .  .     .      .

Verse One:

  Guitar I
E|-------------------------------------------------------------------------|
B|-------------------------------------------------------------------------|
G|-------------------------------------------------------------------------|
D|-------------------------------------------------------------------------|
A|-------------------------------------------------------------------------|
D|-------------------------------------------------------------------------|
 |Guitar II
E|-------------------------------------------------------------------------|
B|-------------------------------------------------------------------------|
G|-------------------------------------------------------------------------|
D|-------------------------------------------------------------------------|
A|-5-555555-3-111-0-000000-3333-1111-00000000-3333-1111-0000------1111-0000|
D|-----------------------------------------------------------5555----------|
   . ...... . ... . ...... .... .... ........ .... .... .... .... .... ....
  Guitar I
E|-------------------------------------------------------------------|
B|-------------------------------------------------------------------|
G|-------------------------------------------------------------------|
D|-------------------------------------------------------------------|
A|-------------------------------------------------------------------|
D|-------------------------------------------------------------------|
 |Guitar II
E|-------------------------------------------------------------------|
B|-------------------------------------------------------------------|
G|-------------------------------------------------------------------|
D|-------------------------------------------------------------------|
A|-5-5555-55-3333-1111-0000-3333-1111-0-00-0000------111/3--7777-7777|
D|----------------------------------------------5555-----------------|
   . .... .. .... .... .... .... .... . .. .... .... ...    .... ....
  Guitar I
E|-------------------------------------------------------------------------|
B|-------------------------------------------------------------------------|
G|-------------------------------------------------------------------------|
D|-------------------------------------------------------------------------|
A|---556p5--5-56p5----556p5--5-56p5-3---556p5--5-56p5----556p5--5-56p5-3---|
D|-0-------0-0-----00-------0-0-------0-------0-0-----00-------0-0---------|
 |Guitar II
E|-------------------------------------------------------------------------|
B|-------------------------------------------------------------------------|
G|-------------------------------------------------------------------------|
D|-------------------------------------------------------------------------|
A|-5555-5555-3333-3333-1111/5555-1111-1111-0000-5555-0000------------------|
D|--------------------------------------------------------5555-3333-0000---|
   .... .... .... .... ....  ... .... .... .... .... .... .... .... ....
  Guitar I
E|------------------------------------------------|
B|------------------------------------------------|
G|------------------------------------------------|
D|------------------------------------------------|
A|-3/55555-5-5/77777-7-7/1010101010-10-10\88887-8-|
D|------------------------------------------------|
 |Guitar II
E|------------------------------------------------|
B|------------------------------------------------|
G|------------------------------------------------|
D|------------------------------------------------|
A|------------------------------------------------|
D|------------------------------------------------|

Chorus:

  Guitar I
E|-----------------------------------------------------------------|
B|-----------------------------------------------------------------|
G|-----------------------------------------------------------------|
D|-0-00-0-8888-xx-10-1010-10-0000-xx-888-x-5555-2-22-3p2-2-222-3p2-|(x2)
A|-0-00-0-8888-xx-10-1010-10-0000-xx-888-x-5555-2-22-3p2-2-222-3p2-|
D|-0-00-0-8888-xx-10-1010-10-0000-xx-888-x-5555-2-22-3p2-2-222-3p2-|
 |Guitar II
E|-----------------------------------------------------------------|
B|-----------------------------------------------------------------|
G|-----------------------------------------------------------------|
D|-0~-----3~-----5~----------0~------3~----5~---2-2--3p2-2-22--3p2-|(x2)
A|-0~-----1~-----3~----------0~------1~----5~---2-2--3p2-2-22--3p2-|
D|-0~------------------------0~------------5~---2-2--3p2-2-22--3p2-|

Pre-Verse:

  Guitar I
E|------------------------------|
B|------------------------------|
G|------------------------------|
D|-0-00-00-0-00-00-0-00-00-0000-|
A|-0-00-00-0-00-00-0-00-00-0000-|
D|-0-00-00-0-00-00-0-00-00-0000-|

Verse II:

  Guitar I
E|--------------------------------------------------|
B|--------------------------------------------------|
G|--------------------------------------------------|
D|--------------------------------------------------|(x2)
A|---5--6p5---5--6p5-----3----5--6p5---5-8p6-5h6-3--|
D|-0--0-----0--0-----0h3----0--0-----0------0-------|
 | .  .     .  .            .  .     .      .
 |Guitar II
E|--------------------------------------------------|
B|--------------------------------------------------|
G|--------------------------------------------------|
D|--------------------------------------------------|(Silent twice
A|--------------------------------------------------|
D|--------------------------------------------------|

  Guitar I
E|-------------------------------------------------------------------------|
B|-------------------------------------------------------------------------|
G|-------------------------------------------------------------------------|
D|-------------------------------------------------------------------------|
A|-------------------------------------------------------------------------|
D|-------------------------------------------------------------------------|
 |Guitar II
E|-------------------------------------------------------------------------|
B|-------------------------------------------------------------------------|
G|-------------------------------------------------------------------------|
D|-------------------------------------------------------------------------|
A|55555555-3333-1111-00000000-3333-1111-0000-33333333-1111-0000------1111-0|
D|--------------------------------------------------------------5555-------|
  ........ .... .... ........ .... .... .... ........ .... .... .... .... .
  Guitar I
E|-------------------------------------------------------------------------|
B|-------------------------------------------------------------------------|
G|-------------------------------------------------------------------------|
D|-------------------------------------------------------------------------|
A|-555h6--555-5h6p5-3-555h6-5888-6p5-3--556p5-5565------3-556p5-5-88-6h8/12|
D|---------------------------------------------------0h3-------------------|
 |Guitar II
E|-------------------------------------------------------------------------|
B|-------------------------------------------------------------------------|
G|-------------------------------------------------------------------------|
D|-------------------------------------------------------------------------|
A|-------------------------------------------------------------------------|
D|-------------------------------------------------------------------------|

Pre-Chorus:

  Guitar I
E|-------------------------------------------------------------------------|
B|-------------------------------------------------------------------------|
G|-------------------------------------------------------------------------|
D|-------------------------------------------------------------------------|
A|-5~-------7~---------10~----------8~-------------------------------------|
D|-------------------------------------------------------------------------|
(Option to slide from each note to the next)

Chorus:

  Guitar I
E|-----------------------------------------------------------------|
B|-----------------------------------------------------------------|
G|-----------------------------------------------------------------|
D|-0-00-0-8888-xx-10-1010-10-0000-xx-888-x-5555-2-22-3p2-2-222-3p2-|(x2)
A|-0-00-0-8888-xx-10-1010-10-0000-xx-888-x-5555-2-22-3p2-2-222-3p2-|
D|-0-00-0-8888-xx-10-1010-10-0000-xx-888-x-5555-2-22-3p2-2-222-3p2-|
 |Guitar II
E|-----------------------------------------------------------------|
B|-----------------------------------------------------------------|
G|-----------------------------------------------------------------|
D|-0~-----3~-----5~----------0~------3~----5~---2-2--3p2-2-22--3p2-|(x2)
A|-0~-----1~-----3~----------0~------1~----5~---2-2--3p2-2-22--3p2-|
D|-0~------------------------0~------------5~---2-2--3p2-2-22--3p2-|

Bridge:

  Guitar I
E|-----------------------------------------------|
B|-----------------------------------------------|
G|-----------------------------------------------|
D|-----------------------------------------------|
A|-5~---7~---10~---8~---5~---7~---10~---8~-------|
D|-----------------------------------------------|
 |Guitar II
E|-----------------------------------------------|
B|-----------------------------------------------|
G|-----------------------------------------------|
D|-00--000----11--000----00--000--00--00000000-8-|
A|-00--000----11--000----00--000--00--00000000-8-|
D|-00--000----11--000----00--000--00--00000000-8-|
   ..  ...    ..  ...    ..  ...  ..  ........ .

Solo:

  Guitar I
E|-------------------------------------------------------------------------|
B|-------------------------------------------------------------------------|
G|-------------------------------------------------------------------------|
D|-7/14-1414-14/12-1515-15\14-14\12-121212-1012-141414\12-12\10-101010-9-10|
A|-x-x--x-x--x--x--x-x--x--x--x--x--x-x-x--x-x--x-x-x--x--x--x--x-x-x--x-x-|
D|-5-12-1212-12-10-1313-13-12-12-10-101010-8-10-121212-10-10-8--8-8-8--7-8-|

E|-------------------------------------------------------------------------|
B|-------------------------------------------------------------------------|
G|-------------------------------------------------------------------------|
D|-121212-109---10\9-10\9-10\9-10\9-1010-99-777-9-10-121212-109/141414-1514|
A|-x-x-x--x-x-x-x--x-x--x-x--x-x--x-x-x--xx-xxx-x-x--x-x-x--x-x-x-x-x--x-x-|
D|-101010-8-7-x-8--7-8--7-8--7-8--7-8-8--77-555-7-8--101010-8-7-121212-1312|

E|-------------------------------------------------------------------------|
B|-------------------------------------------------------------------------|
G|-------------------------------------------------------------------------|
D|-171717-1514-101010-12-14-9999-10-12-1414-1414-1414-1414141414b14--000---|
A|-x-x-x--x-x--x-x-x--x--x--xxxx-x--x--x-x--x-x--x-x--x-x-x-x-x--x---000---|
D|-151515-1312-8-8-8--10-12-7777-8--10-1212-1212-1212-1212121212b14--000---|
                                                                     ...

Outro Chorus:

  Guitar I
E|-----------------------------------------------------------------|
B|-----------------------------------------------------------------|
G|-----------------------------------------------------------------|
D|-0-00-0-8888-xx-10-1010-10-0000-xx-888-x-5555-2-22-3p2-2-222-3p2-|(x4)
A|-0-00-0-8888-xx-10-1010-10-0000-xx-888-x-5555-2-22-3p2-2-222-3p2-|
D|-0-00-0-8888-xx-10-1010-10-0000-xx-888-x-5555-2-22-3p2-2-222-3p2-|
 |Guitar II
E|-----------------------------------------------------------------|
B|-----------------------------------------------------------------|
G|-----------------------------------------------------------------|
D|-0~-----3~-----5~----------0~------3~----5~---2-2--3p2-2-22--3p2-|(x4)
A|-0~-----1~-----3~----------0~------1~----5~---2-2--3p2-2-22--3p2-|
D|-0~------------------------0~------------5~---2-2--3p2-2-22--3p2-|

(At the end of the Outro Chorus, Guitar I leaves off on the open notes for the last 
strings (D|-0 A|-0 D|-0))

And That's it, There are different ways to do the outro (Such as doing the Bridge for 
II repetitively, but this is how I always end it, so that's what I put =3 Hope you enjoy!

E-mail: lifelessdeath@hotmail.com
Tab Created By: Jordan Mahon a.k.a. 4yi

            
            
Suggest correction
Creating personal tab
Creating personal tab
You can edit any tab online and save it as your Personal.

You can edit, replace or remove any tab part or add personal notes – all changes will be seen only by you.

Personal tabs can be accessed anytime from any device, even offline.
Learn more »
Give kudos to tab author, rate the tab!
1 2 3 4 5
comments
print report bad tab
2 comments total.
0 reply
dark_falco3000 627 May 19, 2008 07:23 AM

Your solo is one string off. It's done on the A and G strings, not the D strings. What you did there aren't even octaves O_o

0 reply
Lifeless Death 10 Dec 07, 2008 03:27 PM

Yeah, the solo was obviously a mistake on typing out the Tabs, just move the solo to the 5th and 3rd string instead of 6th&4th and it's how the Tab should look.

guest
Wanna post a correction for this tab? Suggest correction