Oops, an error
Loading. Please wait.

Your Star tab

version 2
version 2

Whole song

Interactive

3,839 views 3 this week
2 commentsread comments
1 2 3 4 5
x 8
add to favorites
×
Save as Personal and add changes to this tab that will be seen only by you. Learn more ›
×
You can save this tab as Personal to edit and correct it or add notes. All changes will be seen only by you. Learn more »
launch autoscroll
font size
0
reset
how to read this tab
guitar tuner
edit
Autoscroll
slow
fast
+/-
esc
set tempo
stop
Evanescence - Your Star
tabbed by Haker89
Drop D down 1 step   CGCFAD

p palm mute
* harmonic (mostly pinch)
v vibrato
s slide

after the piano part we've got this simple riff (01:42):
(dopo la parte di pianoforte, a 01:42 abbiamo il primo riff, semplice)
Guitar1/2

|------------|
|------------|
|------------| x8
|0-0--------0|
|0-0--0000--0|
|0-0--0000--0|
      pppp

then, at 02:02, there is:
(poi, al minuto 02:02):

Guitar 1/2
|-----------------------------------|
|-----------------------------------|
|-----------------------------------|
|5----7-----3-0-0--------0-0--------|
|3----5-----3-0-0--0000--0-0--------|
|-----5-----3-0-0--0000--0-0--------|
                   pppp

at about 02:12 there is a riff that sounds like this
(a circa 02:12 c'è un riff che suona come segue):
  A               B (riff B 1st time)   riff B 2nd time
|----------------------------------|    |----------------|
|----------------------------------|    |----------------|
|----------------------------------|    |----------------|
|0---0-----------------------------|    |----------------|
|0-5-0-2-0-00253-2---3v---1v---0*v-|    |--0v--------3*v-| this is how I play
|0-5-0-2-0-00253-2 00---00---00----|    |00---005v-00----| the 2nd harmonic
   p   p   pppp    pp   pp   pp          pp   pp   pp     it's the closest
                                                          to the song's one.

The 1st harmonic is more like a semi-harmonic but even if it's a pitch one the sound is
The harmonics are played by 1 guitar.
(io il 2° harmonic lo suono al 3° tasto ed è quello che più si avvicina a quello nella
Avendo fatto questo riff e i seguenti ad orecchio non è garantito che siano giusti al
Il 1° harmonic è più che altro un semi-harmonic ma anche se suonato come pitch harmonic 
suono non cambia di molto. Gli harmonics vengono suonati da una delle due chitarre)

After this part there's a piano part repeated then by both the guitars.
This riff sounds as follows. I'm 100% that this riff is tabbed as follows 'cause I tried
first on Guitar Pro.(note: this riff is faster than can appear, to distinguish 10 to
Before this riff there's this:
(Dopo c'è una parte di pianoforte ripetuta poi anche da entrambe le chitarre. Sono
al 100% che il riff seguente sia giusto, anche perchè l'ho provato su Guitar Pro. Questo riff
più veloce di quello che i trattini possono indicare. Questo perche non si confondesse 
con 1-0. Chi vorrà fare il file di Guitar Pro lo informo che tutte le note del BRIDGE
biscrome. La velocità della canzone si aggira ai 110x0.50 come impostazione su Guitar 
Prima però c'è questo

|----------------------|
|----------------------|
|----------------------|
|7----2----------------|
|7----2-----2----2v*---|
|7----2---5--2-5-------|
          p  p p

Then the bridge 100% correct (1st time both guitars)
|-------------------------------------------------------------------|
|-------------------------------------------------------------------|
|-------------------------------------------------------------------|
|-------------------------------------------------------------------|
|7------7------7---10-----8-----7---5-----5-----5---8-----7-----5---|
|--7-10---7-10---7----7-7---7-7---7---6-9---6-9---6---6-6---6-6--6--|
   p p   p p     p    p p   p p   p   p p   p p   p   p p   p p  p

|------------------------------------------------------------|
|------------------------------------------------------------|
|------------------------------------------------------------|
|-------------------------------2---------------2------------|
|3-----3-----3---5----3-----5----------------------5---3---2-|
|--2-5---2-5---2--2-2---2-2---2---2-2-2-2-2-2-2---2---2---2--|
   p p   p p   p  p p   p p   p   p p p p p p p  p   p   p

on 2nd time the 1st guitar plays as first but the 2nd guitar plays the same riff 2
higher(la seconda volta la chitarra 1 suona come prima ma la chitarra 2 suona lo stesso riff
ottave più alte quindi):

|12----12----12--15----13----12--10-----10------10---13------12------10---|
|----13----13--------13----13--------12----9-12----9----9-12----9-12----9-|
|--14----14----14--14----14----14-----------------------------------------|
|-------------------------------------------------------------------------|
|-------------------------------------------------------------------------|
|-------------------------------------------------------------------------|

|8-0-5-8-0-5-8-0-10-0----8-0----10-0-12-0-0-0-0-0-0-0-12-0-10-8-0-7-0-|
|---------------------10-----10---------------------------------------|
|---------------------------------------------------------------------|
|---------------------------------------------------------------------|
|---------------------------------------------------------------------|
|---------------------------------------------------------------------|

Then there's a part that sounds like this (Poi c'è una parte che suona come segue):

Both Guitars
This first riff is repeated 3 times
(questo riff si ripete 3 volte e, con le biscrome, così scritto sta in 4/4)
|------------------------------|
|------------------------------|
|------------------------------|
|--------------------------3---|
|0-2---------0-2-5-3-2-0-2-3---|
|0-2-2-2-2-2-0-2-5-3-2-0-2-3---|
     p p p p

then

|----------------------------------|
|----------------------------------|
|----------------------------------|
|------------------2---------------|
|0-2-------------------5---3---2v--|
|0-2-2-2-2-2-2-2-2---2---2---2-----|
     p p p p p p p   p   p   p

|---------------------------------      ------------------------------|
|---------------------------------      ------------------------------|
|---------------------------------      ------------------------------|
|---------------------------------  x 2 ------------------------------|
|----7-------7---------7----5-5-7-      -7-8v---8-8-8-8----s8---7v----|
|7-7---7-9-9---9-10-10---10-------      --------8-8-8-8---------------|
 p p   p p p   p  p  p    p p p

Then there's the outro same as the bridge but with a little variation
(Poi c'è la chiusura uguale al BRIDGE ma con una piccola variazione)

|-------------------------------------------------------------------|
|-------------------------------------------------------------------|
|-------------------------------------------------------------------|
|-------------------------------------------------------------------|
|7------7------7---10-----8-----7---5-----5-----5---8-----7-----5---|
|--7-10---7-10---7----7-7---7-7---7---6-9---6-9---6---6-6---6-6--6--|
   p p   p p     p    p p   p p   p   p p   p p   p   p p   p p  p

|--------------------------------------------------------------|
|--------------------------------------------------------------|
|--------------------------------------------------------------|
|--------------------------------------------------------------|
|3-----3-----3---5-----3-----3---5-----3-----3---5-----3-----5-|
|--2-5---2-5---2---2-5---2-5---2---2-5---2-5---2---2-5---2-5---|
   p p   p p   p   p p   p p   p   p p   p p  p    p p   p p
|-------------------------------------------------------------------|
|-------------------------------------------------------------------|
|-------------------------------------------------------------------|
|-------------------------------------------------------------------|
|7------7------7---10-----8-----7---5-----5-----5---8-----7-----5---|
|--7-10---7-10---7----7-7---7-7---7---6-9---6-9---6---6-6---6-6--6--|
   p p   p p     p    p p   p p   p   p p   p p   p   p p   p p  p

|--------------------------------------------------------------------------|
|--------------------------------------------------------------------------|
|--------------------------------------------------------------------------|
|-------------------------------2---------------2-----------  all this x 2-|
|3-----3-----3---5----3-----5----------------------5---3---2---------------|
|--2-5---2-5---2--2-2---2-2---2---2-2-2-2-2-2-2---2---2---2----------------|
   p p   p p   p  p p   p p   p   p p p p p p p  p   p   p

That's it. Hope it will be useful. Enjoy and rock on!
(Questo è quanto. Spero che sarà d'aiuto. Divertitevi e spaccate tutto!)

                 by Haker89

            
            
Suggest correction
Creating personal tab
Creating personal tab
You can edit any tab online and save it as your Personal.

You can edit, replace or remove any tab part or add personal notes – all changes will be seen only by you.

Personal tabs can be accessed anytime from any device, even offline.
Learn more »
comments
print report bad tab
2 comments total.
0 reply
Jake042 10 Apr 02, 2007 06:08 PM

too complicated and doesnt label any parts

guest
Wanna post a correction for this tab? Suggest correction