Oops, an error
Loading. Please wait.

Your Star tab

version 3
version 3

Whole song

Interactive

3,120 views 9 this week
2 commentsread comments
1 2 3 4 5
1 last vote to show rating
add to favorites
×
Save as Personal and add changes to this tab that will be seen only by you. Learn more ›
×
You can save this tab as Personal to edit and correct it or add notes. All changes will be seen only by you. Learn more »
launch autoscroll
font size
0
reset
how to read this tab
guitar tuner
edit
Autoscroll
slow
fast
+/-
esc
set tempo
stop
Author
Your Star
by Evanescence
from The Open Door
tabbed by Angel Fires

Okay guys I did this song a while back but it sucked, so I redid it and THIS one is much 
accurate:

When the guitar first comes in at 1:42:


d--------------------|
A--------------------|
F--------------------|
C-0---0--0--0-0-0--0-|
G-0---0--0--0-0-0--0-|
C-0---0--0--0-0-0--0-| [times 8]
PM    .  .  . . .  .

Then this is played once:

d-----------------|-----------------|
A-----------------|-----------------|
F-----------------|-----------------|
C-0---------------|-3---------------|
G-0---------------|-3---------------|
C-0---------------|-3---------------|

Then this is played twice again:
d--------------------|
A--------------------|
F--------------------|
C-0---0--0--0-0-0--0-|
G-0---0--0--0-0-0--0-|
C-0---0--0--0-0-0--0-|
PM    .  .  . . .  .


After that play:

d--------------------------------|
A--------------------------------|
F--------------------------------|
C-0---0-0-0-0--------------------|
G-0---0-0-0-0-8b--0-0-7b--0-0-5b-|
C-0---0-0-0-0-----0-0-----0-0----| [times 4]
              A.H     A.H     A.H
Then there is a piano break until 2:49 then:

d-------------------|
A-------------------|
F-------------------|
C-7-----------------|
G-7-------------12b-|
C-7-----------------|
                A.H


Bridge (Played on a Drop D Guitar, or you can play it on drop C):

e-----------------|------------------|-----------------|-----------------|
B-----------------|------------------|-----------------|-----------------|
G-----------------|------------------|-----------------|-----------------|
D-----------------|------------------|-----------------|-----------------|
A-5-----5-----5---|-8------6-----5---|-3-----3-----3---|-6-----5-----3---|
D---5-8---5-8---5-|---5--8---5-8---5-|---4-7---4-7---4-|---4-7---4-7---4-|

e-----------------|-----------------|-----------------|------------------|
B-----------------|-----------------|-----------------|------------------|
G-----------------|-----------------|-----------------|------------------|
D-----------------|-----------------|-----------------|------------------|
A-1-----1-----1---|-3-----1-----3---|-5---------------|-5---3---1---0----|
D---0-5---0-5---0-|---0-4---0-4---0-|---0-4-7-0-4-7-0-|---0---0---0---0--|


Then at 3:14

d-----------------------|
A-----------------------|
F-----------------------|
C-0---------------------|
G-0---------------------|
C-0---0-0-0-2-3-2-0-0-0-|
PM    . . . . . . . . .

Then at 3:32             3:35
d-----------------------|-----------------------|---|
A-----------------------|-----------------------|---|
F-----------------------|-----------------------|---|
C-2---------------------|-6---------------------|-7-|
G-2---------------------|-6---------------------|-7-|
C-2---------------------|-6---------------------|-7-|


Then at 3:55 play the bridge riff twice:
e-----------------|------------------|-----------------|-----------------|
B-----------------|------------------|-----------------|-----------------|
G-----------------|------------------|-----------------|-----------------|
D-----------------|------------------|-----------------|-----------------|
A-5-----5-----5---|-8------6-----5---|-3-----3-----3---|-6-----5-----3---|
D---5-8---5-8---5-|---5--8---5-8---5-|---4-7---4-7---4-|---4-7---4-7---4-|

e-----------------|-----------------|-----------------|------------------|
B-----------------|-----------------|-----------------|------------------|
G-----------------|-----------------|-----------------|------------------|
D-----------------|-----------------|-----------------|------------------|
A-1-----1-----1---|-3-----1-----3---|-5---------------|-5---3---1---0----|
D---0-5---0-5---0-|---0-4---0-4---0-|---0-4-7-0-4-7-0-|---0---0---0---0--|[times 2]

Then after she stops signing play just the first half of the bridge riff four times:
e-----------------|------------------|-----------------|-----------------|
B-----------------|------------------|-----------------|-----------------|
G-----------------|------------------|-----------------|-----------------|
D-----------------|------------------|-----------------|-----------------|
A-5-----5-----5---|-8------6-----5---|-3-----3-----3---|-6-----5-----3---|
D---5-8---5-8---5-|---5--8---5-8---5-|---4-7---4-7---4-|---4-7---4-7---4-|[four times]

Let the 4 at the end ring.

Well thats it! Have fun. If you want to contact me about it, here's my email:
morbidshock@gmail.com

            
            
Suggest correction
Creating personal tab
Creating personal tab
You can edit any tab online and save it as your Personal.

You can edit, replace or remove any tab part or add personal notes – all changes will be seen only by you.

Personal tabs can be accessed anytime from any device, even offline.
Learn more »
Give kudos to tab author, rate the tab!
1 2 3 4 5
comments
print report bad tab
2 comments total.
0 reply
not-human00 52 Jun 27, 2007 07:41 AM

theres a guitar at the start

|----------------|----------------|----------------|----------------|
|----------------|----------------|----------------|----------------|
|----------------|----------------|----------------|----------------|
|----------------|----------------|----------------|----------------|
|8-8-8-8-6-6-8-8-|9-9-8-8-6-6-8-8-|4-4-4-4-4-4-3-3-|3-3-3-3---------|
|----------------|----------------|----------------|--------6-6-6-6-|

|----------------|----------------|----------------|----------------|
|----------------|----------------|----------------|----------------|
|----------------|----------------|----------------|----------------|
|----------------|----------------|----------------|--------6-6-6-6-|
|8-8-8-8-6-6-8-8-|9-9-8-8-6-6-8-8-|4-4-4-4-4-4-3-3-|3-3-3-3---------|
|----------------|----------------|----------------|----------------|

and it also gets played an octave higher, thats what i hear anyway

0 reply
not-human00 52 Jun 27, 2007 07:41 AM

wait im on the bloody wrong song, sorry im f**kin blind

guest
You may want to rate the tab now too:
select rating
Wanna post a correction for this tab? Suggest correction