Oops, an error
Loading. Please wait.

Beg Tab

version 1
version 1

Whole song

Interactive

8,920 views 9 this week
10 commentsread comments
1 2 3 4 5
x 5
add to favorites
launch autoscroll
font size
0
reset
how to read this tab
guitar tuner
Autoscroll
slow
fast
+/-
esc
set tempo
stop
Help us to improve Ultimate-Guitar.com Take our survey!
×
Author
Tuning
C# G# C# F# A# D#
Title: Beg
Artist: Evans Blue
Album: The Melody and the Energetic Nature of Volume

Tabbed by: Jason (pojo_us@yahoo.com)

Tuning: Dropped C# (C# G# C# F# A# D#)  dropped D half step down

Here’s one of the greatest songs by Evans Blue. Again they are the most awesome band.

It is fairly straight forward and easy to play…unlike “A Cross and A Girl”. But neways heres “Beg”!

Intro/verse
D#|---------------------------|
B#|---------------------------|
F#|---4---5---7-----4---5---7-|
C#|---------------------------|
G#|-0---0---0-----0---0---0---|
C#|---------------------------|

D#|---------------------------|
B#|---------------------------|
F#|---4---5---7-----4---5---7-|
C#|---------------------------|
G#|---------------------------|
C#|-5---5---5-----5---5---5---|

Repeat 2 more times

Then in the background you can hear something like...

Small bridge to chorus
D#|--------------------|
B#|--------------------|
F#|--4--5--4--5--4--5--|
C#|--------------------|
G#|--------------------|
C#|--------------------|

chorus
D#|--------------------------------------|
B#|--------------------------------------|
F#|--------------------------------------|
C#|-10---12---2---5--3---10---12---2---5-|
G#|-10---12---2---5--3---10---12---2---5-|
C#|-10---12---2---5--3---10---12---2---5-|


Verse
D#|---------------------------|
B#|---------------------------|
F#|---4---5---7-----4---5---7-|
C#|---------------------------|
G#|-0---0---0-----0---0---0---|
C#|---------------------------|

D#|---------------------------|
B#|---------------------------|
F#|---4---5---7-----4---5---7-|
C#|---------------------------|
G#|---------------------------|
C#|-5---5---5-----5---5---5---|

Repeat 2 more times

Small bridge to chorus
D#|--------------------|
B#|--------------------|
F#|--4--5--4--5--4--5--|
C#|--------------------|
G#|--------------------|
C#|--------------------|

chorus
D#|--------------------------------------|
B#|--------------------------------------|
F#|--------------------------------------|
C#|-10---12---2---5--3---10---12---2---5-|
G#|-10---12---2---5--3---10---12---2---5-|
C#|-10---12---2---5--3---10---12---2---5-|


Played slowly through drum bridge
D#|----10-----7-----10-----7-----3----|
B#|-----------------------------------|
F#|-----------------------------------|
C#|-----------------------------------|
G#|-----------------------------------|
C#|-----------------------------------|
   --2:05---2:10---2:15--2:17--2:20---|
        Timing of notes

D#|-------|
B#|-------|
F#|-------|
C#|-10-10-|
G#|-10-10-|
C#|-10-10-|
    PM PM

chorus
D#|----------------------------------------|
B#|----------------------------------------|
F#|----------------------------------------|
C#|-10---12---2---5--3---10---12---2---5--3|
G#|-10---12---2---5--3---10---12---2---5--3|
C#|-10---12---2---5--3---10---12---2---5--3|


D#|----------------------------------------|
B#|----------------------------------------|
F#|----------------------------------------|
C#|-10---12---2---5--3---10---12---2---5--3|
G#|-10---12---2---5--3---10---12---2---5--3|
C#|-10---12---2---5--3---10---12---2---5--3|


D#|---------------|
B#|---------------|
F#|---------------|
C#|-10---12---2---|
G#|-10---12---2---|
C#|-10---12---2---|

Outro
D#|-----------------------------------|
B#|-----------------------------------|
F#|-----------------------------------|
C#|-10---12---2---5--3---10---12---2--|
G#|-10---12---2---5--3---10---12---2--|
C#|-10---12---2---5--3---10---12---2--|
                    
Thats it...
Suggest correction
comments
print report bad tab
10 comments total. Showing first comments.
0 reply
CDubDSP 31 Dec 03, 2006 02:06 AM

Very nice. This is my fav song by them, I wanted to tab it for the longest time but dont have enough time to do it. The second part of the verse where they play 5 on the E string I think is a little different from what you have, it sounds like they go down the scale there, and the part where you have question marks around the 3 in the chorus I don't think needs to be played. Other than that good work, keep it up with EB tabs, I love those guys.

0 reply
Tragic Melodies 10 Dec 20, 2006 03:54 PM

This song is actually in Drop D, not Drop C

0 reply
jasonpojo 73 Dec 24, 2006 02:16 AM

dropped D and 1/2 step down...most all of Evans Blue songs are in that tunning..cept maybe cold..

guest
You may want to rate the tab now too:
select rating
Wanna post a correction for this tab? Suggest correction