Oops, an error
Loading. Please wait.

Pin-Up tab

3,202 views 1 this week
2 commentsread comments
1 2 3 4 5
1 last vote to show rating
add to favorites
×
Save as Personal and add changes to this tab that will be seen only by you. Learn more ›
×
You can save this tab as Personal to edit and correct it or add notes. All changes will be seen only by you. Learn more »
launch autoscroll
font size
0
reset
how to read this tab
guitar tuner
edit
Autoscroll
slow
fast
+/-
esc
set tempo
stop
Pin-Up
Evans Blue
The Pursuit Begins When This Potrayal Of Life Ends
Drop C- CGCFAD


-Intro-
Gtr 1- Acoustic
D||-------------------------------------------------------------------||
A||o-----------------------------------------------------------------o||
F||----------0---------------0---------------0---------------0--------||
C||------3-----3---3-----3-----3---3-----3-----3---3-----3-----3---3--||
G||o---3---3-----3-----3---3-----3-----0---0-----0-----0---0-----0---o||
C||--3---------------3---------------0---------------0----------------||
Gtr 2- Acoustic
D||-------------------------------------------------------------------||
A||o-6~~~~~~~~~~~~~~~~~~~~~~~~~~~~~~-6~~~~~~~~~~~~~~~~~~~~~~~~~~~~~~~o||
F||--5~~~~~~~~~~~~~~~~~~~~~~~~~~~~~~-5~~~~~~~~~~~~~~~~~~~~~~~~~~~~~~~-||
C||--3~~~~~~~~~~~~~~~~~~~~~~~~~~~~~~-3~~~~~~~~~~~~~~~~~~~~~~~~~~~~~~~-||
G||o-3~~~~~~~~~~~~~~~~~~~~~~~~~~~~~~---------------------------------o||
C||--3~~~~~~~~~~~~~~~~~~~~~~~~~~~~~~----------------------------------||
Piano
D||----------------------15-17---------------------17-----------------||
A||o------------------18------------------------------18-------------o||
F||----------------17------------------------------------17-----------||
C||-------------------------------------------------------------------||
G||o-3~~~~~~~~~~~~~~~~~~~~~~~~~~~~~~-0~~~~~~~~~~~~~~~~~~~~~~~~~~~~~~~o||
C||--3~~~~~~~~~~~~~~~~~~~~~~~~~~~~~~-0~~~~~~~~~~~~~~~~~~~~~~~~~~~~~~~-||


-Verse-
Gtr 1- Acoustic
D||-------------------------------------------------------------------||
A||o-----------------------------------------------------------------o||
F||----------0---------------0---------------0---------------0--------||
C||------3-----3---3-----3-----3---3-----3-----3---3-----3-----3---3--||
G||o---3---3-----3-----3---3-----3-----0---0-----0-----0---0-----0---o||
C||--3---------------3---------------0---------------0----------------||x3
Gtr 2- Acoustic
D||-------------------------------------------------------------------||
A||o-6~~~~~~~~~~~~~~~~~~~~~~~~~~~~~~-6~~~~~~~~~~~~~~~~~~~~~~~~~~~~~~~o||
F||--5~~~~~~~~~~~~~~~~~~~~~~~~~~~~~~-5~~~~~~~~~~~~~~~~~~~~~~~~~~~~~~~-||
C||--3~~~~~~~~~~~~~~~~~~~~~~~~~~~~~~-3~~~~~~~~~~~~~~~~~~~~~~~~~~~~~~~-||
G||o-3~~~~~~~~~~~~~~~~~~~~~~~~~~~~~~---------------------------------o||
C||--3~~~~~~~~~~~~~~~~~~~~~~~~~~~~~~----------------------------------||x3
Piano
D||-------------------------------------------------------------------||
A||o-----------------------------------------------------------------o||
F||-------------------------------------------------------------------||
C||-------------------------------------------------------------------||
G||o-3~~~~~~~~~~~~~~~~~~~~~~~~~~~~~~-0~~~~~~~~~~~~~~~~~~~~~~~~~~~~~~~o||
C||--3~~~~~~~~~~~~~~~~~~~~~~~~~~~~~~-0~~~~~~~~~~~~~~~~~~~~~~~~~~~~~~~-||x3
-"You're not the first girl, to draw her fears...
-On her arms, in hopes to capture...
-All the memories, that hunted you down...

Gtr 1
D|-------------------------------------------------------------|
A|-------------------------------------------------------------|
F|---------2---------------2---------------2-----------2-------|
C|---3---3---3---3---3---3---3---3---3---3---3---3---3---3---3-|
G|-1---1-------1---1---1-------1---0---0-------0---0-------0---|
C|-------------------------------------------------------------|
Gtr 2
D|-1--1--1--1--1--1--1--1--1--1--1--1--1--1--1--1--1--1--1--1--|
A|-1--1--1--1--1--1--1--1--1--1--1--1--1--1--1--1--1--1--1--1--|
F|-3--3--3--3--3--3--3--3--3--3--2--2--2--2--2--2--2--2--2--2--|
C|-3--3--3--3--3--3--3--3--3--3--3--3--3--3--3--3--3--3--3--3--|
G|-1--1--1--1--1--1--1--1--1--1--0--0--0--0--0--0--0--0--0--0--|
C|-------------------------------------------------------------|
...You can sew your lips shut, with your heart strings...

Gtr 1
D|-------------------------------------------------------------5-|
A|---------------------------------------------------------------|
F|---------2---------------2---------------2-----------2---------|
C|---3---3---3---3---3---3---3---3---3---3---3---3---3---3---3---|
G|-1---1-------1---1---1-------1---0---0-------0---3-------3-----|
C|---------------------------------------------------------------|
Gtr 2
D|-1--1--1--1--1--1--1--1--1--1--1--1--1--1--1--1--1--1--1--1--1-|
A|-1--1--1--1--1--1--1--1--1--1--1--1--1--1--1--1--1--1--1--1--1-|
F|-3--3--3--3--3--3--3--3--3--3--2--2--2--2--2--2--2--2--2--2--2-|
C|-3--3--3--3--3--3--3--3--3--3--3--3--3--3--3--3--3--3--3--3--3-|
G|-1--1--1--1--1--1--1--1--1--1--0--0--0--0--0--0--0--3--3--3--3-|
C|---------------------------------------------------------------|
'Cause God knows that you don't need them to hold yourself together"


-Chorus-
Gtr 1,2- Dist.
D||---------------------------------------------------||
A||o-------------------------------------------------o||
F||---------------------------------------------------||
C||--3-3-3-3-3-3-3-3-3-3-3-3-0-0-0-0-0-0-0-0-0-0-0-0--||
G||o-3-3-3-3-3-3-3-3-3-3-3-3-0-0-0-0-0-0-0-0-0-0-0-0-o||
C||--3-3-3-3-3-3-3-3-3-3-3-3-0-0-0-0-0-0-0-0-0-0-0-0--||x3
-"But don't look down because, I don't know...
-Falling is fatal, from this height I know...
-I should have never, held you up...

D|-------------------------------------------------------------|
A|-------------------------------------------------------------|
F|-------------------------------------------------------------|
C|-8-8-8-8-8-8-8-8-8-8-8-8-10-10-10-10-10-10-10-10-10-10-10-10-|
G|-8-8-8-8-8-8-8-8-8-8-8-8-10-10-10-10-10-10-10-10-10-10-10-10-|
C|-8-8-8-8-8-8-8-8-8-8-8-8-10-10-10-10-10-10-10-10-10-10-10-10-|
...This high, this high"

D|----------------------------|
A|----------------------------|
F|----------------------------|
C|-3~~~~~~~~~~~~~~~~~~~~~~~~~-|
G|-3~~~~~~~~~~~~~~~~~~~~~~~~~-|
C|-3~~~~~~~~~~~~~~~~~~~~~~~~~-|



Piano
D||--------------15----------------------15----------|
A||o-------18-------18----18-------18-------18----18-|
F||-----17----17-------17-------17----17-------17----|
C||--15----------------------15----------------------|
G||o-------------------------------------------------|
C||--------------------------------------------------|
Gtr 1- Acoustic
D||-------------------------------------------------|
A||o-6--6--6--6--6--6--6--6--6--6--6--6--6--6--6--6-|
F||--5--5--5--5--5--5--5--5--5--5--5--5--5--5--5--5-|
C||--3--3--3--3--3--3--3--3--3--3--3--3--3--3--3--3-|
G||o-3--3--3--3--3--3--3--3--3--3--3--3--3--3--3--3-|
C||--3--3--3--3--3--3--3--3--3--3--3--3--3--3--3--3-|

D|-------------15----------------------15-----------||
A|-------18-------18----18-------18-------18----18-o||
F|----17----17-------17-------17----17-------17-----||
C|--------------------------------------------------||
G|-17----------------------17----------------------o||
C|--------------------------------------------------||
Gtr 1
D|-------------------------------------------------||
A|-6--6--6--6--6--6--6--6--6--6--6--6--6--6--6--6-o||
F|-5--5--5--5--5--5--5--5--5--5--5--5--5--5--5--5--||
C|-3--3--3--3--3--3--3--3--3--3--3--3--3--3--3--3--||
G|-0--0--0--0--0--0--0--0--0--0--0--0--0--0--0--0-o||
C|-0--0--0--0--0--0--0--0--0--0--0--0--0--0--0--0--||


-Verse-
Piano
D||-------------15----------------------15----------|
A||o------18-------18----18-------18-------18----18-|
F||----17----17-------17-------17----17-------17----|
C||-------------------------15----------------------|
G||o-3----------------------------------------------|
C||--3----------------------------------------------|
Gtr 1
D||-------------------------------------------------|
A||o-6--6--6--6--6--6--6--6--6--6--6--6--6--6--6--6-|
F||--5--5--5--5--5--5--5--5--5--5--5--5--5--5--5--5-|
C||--3--3--3--3--3--3--3--3--3--3--3--3--3--3--3--3-|
G||o-3--3--3--3--3--3--3--3--3--3--3--3--3--3--3--3-|
C||--3--3--3--3--3--3--3--3--3--3--3--3--3--3--3--3-|
-"You're not the first...
-Fears, in her...
-Trickle down, past memories...

Piano
D|------------15----------------------15-----------||
A|------18-------18----18-------18-------18----18-o||
F|---17----17-------17-------17----17-------17-----||
C|-------------------------------------------------||
G|-0----------------------17----------------------o||
C|-0-----------------------------------------------||x3
Gtr 1
D|-------------------------------------------------||
A|-6--6--6--6--6--6--6--6--6--6--6--6--6--6--6--6-o||
F|-5--5--5--5--5--5--5--5--5--5--5--5--5--5--5--5--||
C|-3--3--3--3--3--3--3--3--3--3--3--3--3--3--3--3--||
G|-0--0--0--0--0--0--0--0--0--0--0--0--0--0--0--0-o||
C|-0--0--0--0--0--0--0--0--0--0--0--0--0--0--0--0--||x3
...Girl, To cut her...
...Arms, then let them...
...To pools in your hands...

Piano
D|---------------15----------------------15----------|
A|------18----18----18----18----18----18----18----18-|
F|---17----17----------17----17----17----------17----|
C|---------------------------------------------------|
G|-1-------------------------1-----------------------|
C|---------------------------------------------------|
Gtr 1
D|-1----1----1----1----1----1----1----1----1----1----|
A|-1----1----1----1----1----1----1----1----1----1----|
F|-3----3----3----3----3----3----3----3----3----3----|
C|-3----3----3----3----3----3----3----3----3----3----|
G|-1----1----1----1----1----1----1----1----1----1----|
C|---------------------------------------------------|
...You can hang yourself...

Piano
D|---------------15----------------------15----------|
A|------18----18----18----18----18----18----18----18-|
F|---17----17----------17----17----17----------17----|
C|---------------------------------------------------|
G|-0-------------------------0-----------------------|
C|---------------------------------------------------|
Gtr 1
D|-1----1----1----1----1----1----1----1----1----1----|
A|-1----1----1----1----1----1----1----1----1----1----|
F|-2----2----2----2----2----2----2----2----2----2----|
C|-3----3----3----3----3----3----3----3----3----3----|
G|-0----0----0----0----0----0----0----0----0----0----|
C|---------------------------------------------------|
...With your heart strings...

Piano
D|---------------15----------------------15----------|
A|------18----18----18----18----18----18----18----18-|
F|---17----17----------17----17----17----------17----|
C|---------------------------------------------------|
G|-1-------------------------1-----------------------|
C|---------------------------------------------------|
Gtr 1
D|-1----1----1----1----1----1----1----1----1----1----|
A|-1----1----1----1----1----1----1----1----1----1----|
F|-3----3----3----3----3----3----3----3----3----3----|
C|-3----3----3----3----3----3----3----3----3----3----|
G|-1----1----1----1----1----1----1----1----1----1----|
C|---------------------------------------------------|
...'Cause I know you won't use them...

Piano
D|---------------15----------------------15----------|
A|------18----18----18----18----18----18----18----18-|
F|---17----17----------17----17----17----------17----|
C|---------------------------------------------------|
G|-0-------------------------0-----------------------|
C|---------------------------------------------------|
Gtr 1
D|-1----1----1----1----1----1----1----1----1--1-1-1--|
A|-1----1----1----1----1----1----1----1----1--1-1-1--|
F|-2----2----2----2----2----2----2----2----2--2-2-2--|
C|-3----3----3----3----3----3----3----3----3--3-3-3--|
G|-0----0----0----0----0----0----0----0----3--3-3-3--|
C|---------------------------------------------------|
...To hold yourself up anymore"


-Chorus-
Gtr 1,2- Dist.
D||---------------------------------------------------||
A||o-------------------------------------------------o||
F||---------------------------------------------------||
C||--3-3-3-3-3-3-3-3-3-3-3-3-0-0-0-0-0-0-0-0-0-0-0-0--||
G||o-3-3-3-3-3-3-3-3-3-3-3-3-0-0-0-0-0-0-0-0-0-0-0-0-o||
C||--3-3-3-3-3-3-3-3-3-3-3-3-0-0-0-0-0-0-0-0-0-0-0-0--||x3
-"But don't look down because, I don't know...
-Falling is fatal, from this height I know...
-I should have never, held you up...

D|-------------------------------------------------------------|
A|-------------------------------------------------------------|
F|-------------------------------------------------------------|
C|-8-8-8-8-8-8-8-8-8-8-8-8-10-10-10-10-10-10-10-10-10-10-10-10-|
G|-8-8-8-8-8-8-8-8-8-8-8-8-10-10-10-10-10-10-10-10-10-10-10-10-|
C|-8-8-8-8-8-8-8-8-8-8-8-8-10-10-10-10-10-10-10-10-10-10-10-10-|
...This high, this high"


-Breakdown-
D|----------------------------------|
A|----------------------------------|
F|-5/7-7-7-7-7-7--------5/7-7-7-7-7-|
C|-5/7-7-7-7-7-7--------5/7-7-7-7-7-|
G|-3/5-5-5-5-5-5--------3/5-5-5-5-5-|
C|---0-0-0-0-0-0--------------------|


Yeah....my amplifier is broken and I cannot finish this tab.
anyone can feel free to do so until 2 weeks from now as I wait for my new amplifier to arrive.

            
            
Suggest correction
Creating personal tab
Creating personal tab
You can edit any tab online and save it as your Personal.

You can edit, replace or remove any tab part or add personal notes – all changes will be seen only by you.

Personal tabs can be accessed anytime from any device, even offline.
Learn more »
Give kudos to tab author, rate the tab!
1 2 3 4 5
comments
print report bad tab
2 comments total.
0 reply
xKnifekillerx 393 Nov 05, 2009 10:41 AM

This is perfect :]]]
Real nice song

+1 reply
ltrguitar 10 May 21, 2010 08:49 AM

Very Nice Tab
Here is my rendition of the rest of the song...

Break Down
--------------------------------------------------------------------------------------
----------------------------------------------------------------------------------------------------------------------------------------------------------------------------
-10h12-12-12-0-0-0---10h12-12-12-0-0-0-0-0-3-3-3-10-10-10-----------------------------
-10h12-12-12-0-0-0---10h12-12-12-0-0-0-0-0-3-3-3-10-10-10--10h12p10p8—----------------
-10h12-12-12-0-0-0---10h12-12-12-0-0-0-0-0-3-3-3-10-10-10-----------------------------

(Pull The Needle)
--------------------------------------------------------------------------------------
--------------------------------------------------------------------------------------
--------------------------------------------------------------------------------------
-8-8-8-8-8-8-8-5-5-5-8-8-8-8----------------------------------------------------------
-8-8-8-8-8-8-8-5-5-5-8-8-8-8----------------------------------------------------------
-8-8-8-8-8-8-8-5-5-5-8-8-8-8----------------------------------------------------------

--------------------------------------------------------------------------------------
--------------------------------------------------------------------------------------
--------------------------------------------------------------------------------------
10h12-12-12-0-0-0-0-0h3-3-3-10-10-10--------------------------------------------------
10h12-12-12-0-0-0-0-0h3-3-3-10-10-10--10h12p10p8--------------------------------------
10h12-12-12-0-0-0-0-0h3-3-3-10-10-10--------------------------------------------------

--------------------------------------------------------------------------------------
--------------------------------------------------------------------------------------
--------------------------------------------------------------------------------------
8-8-8-8-8-8-8-5-5-5-8-8-8-8-5-5-5-10-10-10-10-10--------------------------------------
8-8-8-8-8-8-8-5-5-5-8-8-8-8-5-5-5-10-10-10-10-10--------------------------------------
8-8-8-8-8-8-8-5-5-5-8-8-8-8-5-5-5-10-10-10-10-10--------------------------------------

----------------------------------------------------------------------
----------------------------------------------------------------------
----------------------------------------------------------------------
3-3-3-3-3-3-3-3-3-3-3-3-3--0-0-0-0-0-0-0-0-0-0-0-0-------------------- x3
3-3-3-3-3-3-3-3-3-3-3-3-3--0-0-0-0-0-0-0-0-0-0-0-0--------------------
3-3-3-3-3-3-3-3-3-3-3-3-3--0-0-0-0-0-0-0-0-0-0-0-0--------------------

(And I will Fall)
--------------------------------------------------------------------------------------
--------------------------------------------------------------------------------------
--------------------------------------------------------------------------------------
-8-8-8-8-8-8-8-8--7-7-7-7-7-7-7-7--8-8-8-8-8-8-8-8--7-7-7-7-10-10-10-10---------------
-8-8-8-8-8-8-8-8--7-7-7-7-7-7-7-7--8-8-8-8-8-8-8-8--7-7-7-7-10-10-10-10---------------
-8-8-8-8-8-8-8-8--7-7-7-7-7-7-7-7--8-8-8-8-8-8-8-8--7-7-7-7-10-10-10-10---------------

Chorus
----------------------------------------------------
----------------------------------------------------
----------------------------------------------------
-3-3-3-3-3-3-3-3-3-3-3-3-0-0-0-0-0-0-0-0-0-0-0-0----
-3-3-3-3-3-3-3-3-3-3-3-3-0-0-0-0-0-0-0-0-0-0-0-0----
-3-3-3-3-3-3-3-3-3-3-3-3-0-0-0-0-0-0-0-0-0-0-0-0----

-------------------------------------------------------------
-------------------------------------------------------------
-------------------------------------------------------------
-8-8-8-8-8-8-8-8-8-8-8-8-10-10-10-10-10-10-10-10-10-10-10-10-
-8-8-8-8-8-8-8-8-8-8-8-8-10-10-10-10-10-10-10-10-10-10-10-10-
-8-8-8-8-8-8-8-8-8-8-8-8-10-10-10-10-10-10-10-10-10-10-10-10-

Ending
-----------------------------------------------------
-----------------------------------------------------
-----------------------------------------------------
-3~------0~-------3~---------0~---------3~-----------
-3~------0~-------3~---------0~---------3~-----------
-3~------0~-------3----------0~---------3~-----------

guest
You may want to rate the tab now too:
select rating
Wanna post a correction for this tab? Suggest correction