Oops, an error
Loading. Please wait.

Q tab

version 2
version 2

Whole song

1,227 views 3 this week
no commentswrite comment
1 2 3 4 5
x 3
add to favorites
×
Save as Personal and add changes to this tab that will be seen only by you. Learn more ›
×
You can save this tab as Personal to edit and correct it or add notes. All changes will be seen only by you. Learn more »
launch autoscroll
font size
0
reset
how to read this tab
guitar tuner
edit
Autoscroll
slow
fast
+/-
esc
set tempo
stop
Author
drop Db (drop C#) 
(C# G# C# F# A# D#) OR (Db Ab Db Gb Ab Eb) THESE TUNINGS ARE THE SAME.

ps CHECK OUT THE ALTERNATE VERSION for the song below. its tuned all the way down 
to drop a (A E A D Gb B)...but 
sounds badass. the song itself is actually played that low put this tab
is in drop Db 
for simplicities sake.


Intro
D#|--x-x-------------------------------------|
A#|--x-x-------------------------------------|
F#|--x-x-------------------------------------|
C#|--x-x--10h12-12-12-12p8-10h12-8--10h12-8--|
G#|--x-x--10h12-12-12-12p8-10h12-8--10h12-8--| 
C#|--x-x--10h12-12-12-12p8-10h12-8--10h12-8--|

D#|---------------------------------------|
A#|---------------------------------------|
F#|---------------------------------------|
C#|---10h12-12-12-12p8-10h12-8--10h12-10--|
G#|---10h12-12-12-12p8-10h12-8--10h12-10--| 
C#|---10h12-12-12-12p8-10h12-8--10h12-10--|

D#|---------------------------------------|
A#|---------------------------------------|
F#|---------------------------------------|
C#|---10h12-12-12-12p8-10h12-8--10h12-10--|
G#|---10h12-12-12-12p8-10h12-8--10h12-10--| 
C#|---10h12-12-12-12p8-10h12-8--10h12-10--|

D#|--------------------------------|
A#|--------------------------------|
F#|--------------------------------|
C#|------10--10-10-10--10h12p10p8--|
G#|------10--10-10-10--10h12p10p8--|   
C#|------10--10-10-10--10h12p10p8--|

intro played 2 times

Verse
D#|--------------------|
A#|--------------------|
F#|--------------------|
C#|------0------0h3-/8-|
G#|------0------0h3-/8-|
C#|------0------0h3-/8-|
Verse played 2 Times

******IGNORE EADGBe*****
Prechorus
e|------------------------------------------|
B|------------------------------------------|
G|------------------------------------------|
D|------10--10-10-10-8-12--12-12--8-8--8-88-|
A|------10--10-10-10-8-12--12-12--8-8--8-88-|
E|------10--10-10-10-8-12--12-12--8-8--8-88-|

e|------------------------------------------|
B|------------------------------------------|
G|------------------------------------------|
D|------10--10-10-10-8-12--12-12--8-8-10-10-|
A|------10--10-10-10-8-12--12-12--8-8-10-10-|
E|------10--10-10-10-8-12--12-12--8-8-10-10-|

Chorus
e|-----------------------------|
B|-----------------------------|
G|-----------------------------|
D|------3----------------0-----|
A|------3----------------0-----|
E|------3----------------0-----|

e|---------------------------------------|
B|---------------------------------------|
G|---------------------------------------|
D|----10-10--8--8-------------8h10-------|
A|----10-10--8--8-------------8h10-------|
E|----10-10--8--8-------------8h10-------|
      .  .
e|-----------------------------|
B|-----------------------------|
G|-----------------------------|
D|------3----------------0-----|
A|------3----------------0-----|
E|------3----------------0-----|

e|------------------------------------|
B|------------------------------------|
G|------------------------------------|
D|----10-10--8--8-------------8-------|
A|----10-10--8--8-------------8-------|
E|----10-10--8--8-------------8-------|
      .  .
Intro played 1X
Verse played 2X
Prechorus played 1X
chorus played 1X


Bridge
e|-----------------------------------------------------|
B|-----------------------------------------------------|
G|-----------------------------------------------------|
D|--10h12--10h12--10h12--10h12--10h12--10h12--10h12--8-|
A|--10h12--10h12--10h12--10h12--10h12--10h12--10h12--8-|
E|--10h12--10h12--10h12--10h12--10h12--10h12--10h12--8-|

e|-------------------------------------------------------|
B|-------------------------------------------------------|
G|-------------------------------------------------------|
D|--10h12--10h12--10h12--10h12--10h12--10h12--10h12--<5>-|
A|--10h12--10h12--10h12--10h12--10h12--10h12--10h12--<5>-|
E|--10h12--10h12--10h12--10h12--10h12--10h12--10h12--<5>-|

two times

e|---------------------------|
B|---------------------------|
G|---------------------------|
D|---------------------------|
A|--10-10-10-10--------------|
E|--10-10-10-10--------------|
     .  .  .  .

Interlude (clean)
e|---------------------------|
B|---------------------------|
G|---------------------------|
D|---10----12----8-------8---|
A|---10----12----8-------8---|
E|---10----12----8-------8---|

Chorus X2


*********alternate version***********)

okay this version is in all the way down to drop A (AEADGbB)

notice that this is 2 full steps down from the original tuning, so basically the entire 
above tab will be played the same but 4 frets higher (ie if the above tab says play 
power chord at 3rd fret it would now be played at the 7th. youll see what i mean).

intro
|--x-x-----------------------------|    this is the same intro as above just
|--x-x-----------------------------|    one octave lower..play along w/ song
|--x-x-----------------------------|    they sound just the same.
|--x-x--2h4-4-4-4p0--2h4-0--2h4-0--|
|--x-x--2h4-4-4-4p0--2h4-0--2h4-0--| 
|--x-x--2h4-4-4-4p0--2h4-0--2h4-0--|


|-----------------------------|
|-----------------------------|
|-----------------------------|
|---2h4-4-4-4p0-2h4-0--2h4-2--|
|---2h4-4-4-4p0-2h4-0--2h4-2--| 
|---2h4-4-4-4p0-2h4-0--2h4-2--|

|-----------------------------|
|-----------------------------|
|-----------------------------|
|---2h4-4-4-4p0-2h4-0--2h4-0--|
|---2h4-4-4-4p0-2h4-0--2h4-0--| 
|---2h4-4-4-4p0-2h4-0--2h4-0--|

|-------------------------|
|-------------------------|
|-------------------------|
|------2--2-2-2--2h4p2p0--|
|------2--2-2-2--2h4p2p0--|   
|------2--2-2-2--2h4p2p0--|

intro played 2 times


this is the basic idea of this alternate tab...apply the concept to the rest of the song 
 and see which version you prefer. Comments appreciated.
Suggest correction
Creating personal tab
Creating personal tab
You can edit any tab online and save it as your Personal.

You can edit, replace or remove any tab part or add personal notes – all changes will be seen only by you.

Personal tabs can be accessed anytime from any device, even offline.
Learn more »
Give kudos to tab author, rate the tab!
1 2 3 4 5
comments
print report bad tab
guest
You may want to rate the tab now too:
select rating
Wanna post a correction for this tab? Suggest correction