Oops, an error
Loading. Please wait.

Tease tab

version 1
version 1

Whole song

Interactive

2,391 views 3 this week
4 commentsread comments
1 2 3 4 5
1 last vote to show rating
add to favorites
×
Save as Personal and add changes to this tab that will be seen only by you. Learn more ›
×
You can save this tab as Personal to edit and correct it or add notes. All changes will be seen only by you. Learn more »
launch autoscroll
font size
0
reset
how to read this tab
guitar tuner
edit
Autoscroll
slow
fast
+/-
esc
set tempo
stop

Tuning:Drop-D and half a step.

INTRO:(figure out the pattern, it really isn't hard!)

eb|--x-------x-------x-------x-------x----------------------------------------|    (x4)
Bb|--x-------x-------x-------x-------x----------------------------------------|
Gb|--4---/---6---/---7---/---9---/---11---------------------------------------|
Db|--x-------x-------x-------x-------x----------------------------------------|
Ab|--2-------4-------5-------7-------9----------------------------------------|
Db|--x-------x-------x-------x-------x----------------------------------------|

Verse[s](strumming pattern is kinda iffy, so listen closely to it.)
eb|--x------------------------------------------------------------------------|
Bb|--x------------------------------------------------------------------------|
Gb|----7-----------------/(G string only)-9--/--11----------------------------|
Db|--7-(roughly 3x, then)-----------------------------------------------------|
Ab|--x------------------------------------------------------------------------|
Db|--x------------------------------------------------------------------------|
(or this, patterns and shit just as they are on the first one.)
eb|--x------------------------------------------------------------------------|
Bb|----3-(Again, G string only!)----/--5--/--7--------------------------------|
Gb|--2------------------------------------------------------------------------|
Db|--x------------------------------------------------------------------------|
Ab|--x------------------------------------------------------------------------|
Db|--x------------------------------------------------------------------------|

Chorus[s] (Strumming is REALLY easy, I strum down on each chord five times.)
eb|--x---------x---------x-----------x-------------------------------------------|   
this chorus x2)
Bb|--x---------x---------x-----------x-------------------------------------------|
Gb|--11-(x5)-\-7-(x5)-/--9--(x5)--\--4--(x5)-------------------------------------|
Db|--9---------5---------7-----------2-------------------------------------------|
Ab|--9---------5---------7-----------2-------------------------------------------|
Db|--9---------5---------7-----------2-------------------------------------------|

Now, when "Be my massacre/You are the massacre etc..." comes in, I play this the same way:
eb|--x--------x---------x--------x----------------------------------------------|
Bb|-12--------8--------10--------5----------------------------------------------|
Gb|-11-(x5)-\-7-(x5)-/--9-(x5)-\-4--(x5)----------------------------------------|
Db|--9--------5---------7--------2----------------------------------------------|
Ab|--9--------5---------7--------2----------------------------------------------|
Db|--9--------5---------7--------2----------------------------------------------|

Now I know i've left something out, and that's the little bridge part. But I don't
want to put anything out yet because I haven't been satisfied with what i've got,
so if you have the bridge and would like some credited fun, e-mail me. ^.^


| /  slide up
| \  slide down
| h  hammer-on
| p  pull-off
| ~  vibrato
| +  harmonic
| x  Mute note
===============================================================================
Suggest correction
Creating personal tab
Creating personal tab
You can edit any tab online and save it as your Personal.

You can edit, replace or remove any tab part or add personal notes – all changes will be seen only by you.

Personal tabs can be accessed anytime from any device, even offline.
Learn more »
Give kudos to tab author, rate the tab!
1 2 3 4 5
comments
print report bad tab
4 comments total. Showing first comments.
+1 reply
Hayter 119 Apr 23, 2007 05:44 AM

Excellent tab

+1 reply
CDubDSP 31 Apr 20, 2008 10:57 AM

The chorus is a little off:
eb|--------------------------------------------------|
Bb|--------------------------------------------------|
Gb|--------------------------------------------------|
Db|--9--------5---------0--------4-------------------|
Ab|--9--------5---------0--------4-------------------|
Db|--9--------5---------0--------4-------------------|

The little part before the bridge (same as outro):
eb|--------------------------------------------------|
Bb|--------------------------------------------------|
Gb|--------------------------------------------------|
Db|-0h4-4--4p0h4-4--4p0h4-4---0-0-0------------------|
Ab|-0h4-4--4p0h4-4--4p0h4-4---0-0-0------------------|
Db|-0h4-4--4p0h4-4--4p0h4-4---0-0-0------------------|

0 reply
CDubDSP 31 Apr 20, 2008 10:57 AM

The chorus is a little off:
eb|--------------------------------------------------|
Bb|--------------------------------------------------|
Gb|--------------------------------------------------|
Db|--9--------5---------0--------4-------------------|
Ab|--9--------5---------0--------4-------------------|
Db|--9--------5---------0--------4-------------------|

The little part before the bridge (same as outro):
eb|--------------------------------------------------|
Bb|--------------------------------------------------|
Gb|--------------------------------------------------|
Db|-0h4-4--4p0h4-4--4p0h4-4---0-0-0------------------|
Ab|-0h4-4--4p0h4-4--4p0h4-4---0-0-0------------------|
Db|-0h4-4--4p0h4-4--4p0h4-4---0-0-0------------------|

guest
You may want to rate the tab now too:
select rating
Wanna post a correction for this tab? Suggest correction