Oops, an error
Loading. Please wait.
We have an official Inside Out tab made by UG professional guitarists. Check out the tab »
×

Inside Out bass

version 1
version 1

Whole song

  • Transcribed from Rocksmith, includes all fills.

Interactive

by Eve 6
25,488 views 33 this week
11 commentsread comments
1 2 3 4 5
x 20
add to favorites
×
Save as Personal and add changes to this tab that will be seen only by you. Learn more ›
×
You can save this tab as Personal to edit and correct it or add notes. All changes will be seen only by you. Learn more »
launch autoscroll
font size
0
reset
guitar tuner
backing track
0:00
0:00
edit
Autoscroll
slow
fast
+/-
esc
set tempo
stop
Author
Unregistered
Song: Inside Out
Artist: Eve 6
Tabbed/Corrected by Dan Loeser (Original by Josh Mott)

"No offense to the person who tabbed this before, but it was incorrect.
Here's the correct version." <-- yours was wrong too buddy. Here's the right one.


[Verse]

Part 1:
G|----------------------------------------------------------------|
D|----------------------------------------------------------------|
A|----2-2----------0-0-----------2-2------------------------------|
E|----------2-2--------3-3-----------2-2----------0-0---0-0-0-0---|(x2)

Part 2:
G|----------------------------------------------------------------|
D|----------------------------------------------------------------|
A|---2-2---------0-0-----------2-2--------------------------------|
E|---------2-2---------3-3-----------2-2----3-3---3-3-3-3---------|


[Bridge]

G|------------------------------------------------------|
D|------------------------------------------------------|
A|--0---------2----2----0-------------------------------|
E|------0-------------------------0-----2\--------------|


[Chorus]

G|----------------------------------------|
D|----------------------------------------|
A|----------2-----------------------------|
E|---0------------2-----2-----------------|(x2)

Then play verse part one once.
Then play verse part two once.
Then play bridge once.
Then play chorus twice.

Then play part four

G|--------------------------------------|
D|--------------------------------------|
A|----2-------------0-------------------|
E|----------0---------------0-----------|

On the last time for part four, add a 3 behind the last 1 on the E
string, then play this ending

G|----------------------------|
D|----------------------------|
A|------------2---------------|
E|-----0-------------2--------|



************************************

| \  Slide down

************************************

            
            
Suggest correction
Creating personal tab
Creating personal tab
You can edit any tab online and save it as your Personal.

You can edit, replace or remove any tab part or add personal notes – all changes will be seen only by you.

Personal tabs can be accessed anytime from any device, even offline.
Learn more »
comments
print report bad tab
11 comments total. Showing first comments.
+1 reply
me2006 10 Dec 31, 2005 05:12 AM

ou suck at tabing this isnt right either

+3 reply
AsteriX018 186 Apr 01, 2006 12:40 PM

Tab doesn't even follow song! Absolutley bad for being pompous. Listen better bro.

+1 reply
hellraiser1133 184 Jul 28, 2007 09:26 PM

its correct, just poorly ordered

guest
Wanna post a correction for this tab? Suggest correction