Oops, an error
Loading. Please wait.

Inside Out Tab

version 2
version 2

Whole song

Interactive

144,051 views 156 this week
9 commentsread comments
1 2 3 4 5
x 48
add to favorites
launch autoscroll
font size
0
reset
how to read this tab
guitar tuner
backing track
0:00
0:00
×
Best way to learn
"Inside Out"
Autoscroll
slow
fast
+/-
esc
set tempo
stop
Use some distortion, typical EvE 6 sound, mid pickup
if playing a Strat-style guitar. The intro is played
with a clean tone.

Note that the E chord (001220) should be played with
your fingers positioned as if playing a barre chord
like F#. Just lift up the index finger that usually
bars the strings. This will later allow you to mute
that chord during the verse by laying your index finger
across the strings and slightly lifting the others.


[Intro]

Let chords ring

e|-----|-0-|-0-|-2-|---|-0-|-0-|-2-|---|
B|-----|-2-|-0-|-4-|---|-2-|-0-|-2-|---|
G|-----|-2-|-1-|-4-|---|-2-|-1-|-3-|---|
D|-x---|-2-|-2-|-4-|---|-2-|-2-|-4-|---|
A|-x-0-|-0-|-2-|-2-|---|-0-|-2-|-4-|---|
E|-----|---|-0-|---|---|---|-0-|-2-|---|
        A   E   B       A   E   F#

e|-0-|-2-|-2-|---|-0-|-2-|-2-|---------|
B|-0-|-4-|-2-|---|-0-|-4-|-2-|---------|
G|-1-|-4-|-3-|---|-1-|-4-|-3-|---------|
D|-2-|-4-|-4-|---|-2-|-4-|-4-|---------|
A|-2-|-2-|-4-|---|-2-|-2-|-4-|------9/-|
E|-0-|---|-2-|---|-0-|---|-2-|---------|
  E   B   F#      E   B   F#


[Verse]

e|---------------------------------------------|
B|---------------------------------------------|
G|-8-8-----x-3-3-----x-6-6-----x-4-4-x-x-----x-|
D|-9-9-----x-4-4-----x-7-7-----x-5-5-x-x-----x-|
A|-9-9-----x-4-4-----x-7-7-----x-5-5-x-x-----x-|
E|-7-7-----x-2-2-----x-5-5-----x-3-3-x-x-----x-|
   B         F#        A         G

e|---------------------------------------------|
B|---------------------------------------------|
G|-8-8-----x-3-3-----1----x--x-1--1-1--x-x-x-x-|
D|-9-9-----x-4-4-----2----x--x-2--2-2--x-x-x-x-|
A|-9-9-----x-4-4-----2----x--x-2--2-2--x-x-x-x-|
E|-7-7-----x-2-2-----0----x--x-0--0-0--x-x-x-x-|
   B         F#     E

e|---------------------------------------------|
B|---------------------------------------------|
G|-8-8-----x-3-3-----x-6-6-----x-4-4-x-x-----x-|
D|-9-9-----x-4-4-----x-7-7-----x-5-5-x-x-----x-|
A|-9-9-----x-4-4-----x-7-7-----x-5-5-x-x-----x-|
E|-7-7-----x-2-2-----x-5-5-----x-3-3-x-x-----x-|

e|---------------------------------------------|
B|---------------------------------------------|
G|-8-8-----x-3-3-----1---------1--1-1--x-x-x-x-|
D|-9-9-----x-4-4-----2---------2--2-2--x-x-x-x-|
A|-9-9-----x-4-4-----2---------2--2-2--x-x-x-x-|
E|-7-7-----x-2-2-----0---------0--0-0--x-x-x-x-|

e|---------------------------------------------|
B|---------------------------------------------|
G|-8-8-----x-3-3-----x-6-6-----x-4-4-x-x-----x-|
D|-9-9-----x-4-4-----x-7-7-----x-5-5-x-x-----x-|
A|-9-9-----x-4-4-----x-7-7-----x-5-5-x-x-----x-|
E|-7-7-----x-2-2-----x-5-5-----x-3-3-x-x-----x-|

e|---------------------3-----3--3-3--3-3---3-3-|
B|---------------------3---3-3--3-3--3-3---3-3-|
G|-8-8-----x-3-3-----x-4---4-4--4-4--4-4---4-4-|
D|-9-9-----x-4-4-----x-5---5-5--5-5--5-5---5-5-|
A|-9-9-----x-4-4-----x-5---5-5--5-5--5-5---5-5-|
E|-7-7-----x-2-2-----x-5---3-3--3-3--3-3---3-3-|


[Chorus]

e|---------------------------------------------|
B|---------------------------------------------|
G|-6-6-----x-1-1-----x-8-8------8---8-8-8-8--x-|
D|-7-7-----x-2-2-----x-9-9------9---9-9-9-9--x-|
A|-7-7-----x-2-2-----x-9-9------9---9-9-9-9--x-|
E|-5-5-----x-0-0-----x-7-7------7---7-7-7-7--x-|

e|---------------------------------------------|
B|---------------------------------------------|
G|-6-6-----x-1-1-------1-3---------------------|
D|-7-7-----x-2-2-------2-4---------------------|
A|-7-7-----x-2-2-------2-4------------------9/-|
E|-5-5-----x-0-0-------0-2---------------------|

e|---------------------------------------------|
B|---------------------------------------------|
G|-1-1-----x-8-8-----x-3-3------3---3-3-3-3--x-|
D|-2-2-----x-9-9-----x-4-4------4---4-4-4-4--x-|
A|-2-2-----x-9-9-----x-4-4------4---4-4-4-4--x-|
E|-0-0-----x-7-7-----x-2-2------2---2-2-2-2--x-|

e|---------------------------------|
B|---------------------------------|
G|-----4-------4-------4-3---3-4-3-|
D|---4-------4-------4-------------|
A|---------2-----2-----------------|
E|-0-----0---------2-------2-------|


[Verse 2]
 
e|--------------------------------------------|
B|--------------------------------------------|
G|-8-8-xx--x-3-3-xx--x-6-6-xxxx-4-4-x-x-----x-|
D|-9-9-xx--x-4-4-xx--x-7-7-xxxx-5-5-x-x-----x-|
A|-9-9-xx--x-4-4-xx--x-7-7-xxxx-5-5-x-x-----x-|
E|-7-7-xx--x-2-2-xx--x-5-5-xxxx-3-3-x-x-----x-|

e|---------------------------------------------|
B|---------------------------------------------|
G|-8-8-xxxx-3-3-xxxx-1----x--x-1--1-1--1-1-1-1-|
D|-9-9-xxxx-4-4-xxxx-2----x--x-2--2-2--2-2-2-2-|
A|-9-9-xxxx-4-4-xxxx-2----x--x-2--2-2--2-2-2-2-|
E|-7-7-xxxx-2-2-xxxx-0----x--x-0--0-0--0-0-0-0-|

e|--------------------------------------------|
B|--------------------------------------------|
G|-8-8-xx--x-3-3-xx--x-6-6-xx--x-4-x-4\\\8----|
D|-9-9-xx--x-4-4-xx--x-7-7-xx--x-5-x-5\\\9----|
A|-9-9-xx--x-4-4-xx--x-7-7-xx--x-5-x-5\\\9----|
E|-7-7-xx--x-2-2-xx--x-5-5-xx--x-3-x-3\\\7----|

e|-------------------3-----3--3-3--3-3---3-3-|
B|-------------------3---3-3--3-3--3-3---3-3-|
G|-8-8-xxxxx-3-xxxxx-4---4-4--4-4--4-4---4-4-|
D|-9-9-xxxxx-4-xxxxx-5---5-5--5-5--5-5---5-5-|
A|-9-9-xxxxx-4-xxxxx-5---5-5--5-5--5-5---5-5-|
E|-7-7-xxxxx-2-xxxxx-5---3-3--3-3--3-3---3-3-|


[Chorus]

e|---------------------------------------------|
B|---------------------------------------------|
G|-6-6-----x-1-1-----x-8-8------8---8-8-8-8--x-|
D|-7-7-----x-2-2-----x-9-9------9---9-9-9-9--x-|
A|-7-7-----x-2-2-----x-9-9------9---9-9-9-9--x-|
E|-5-5-----x-0-0-----x-7-7------7---7-7-7-7--x-|

e|---------------------------------------------|
B|---------------------------------------------|
G|-6-6-----x-1-1-------1-3---------------------|
D|-7-7-----x-2-2-------2-4---------------------|
A|-7-7-----x-2-2-------2-4------------------9/-|
E|-5-5-----x-0-0-------0-2---------------------|

e|---------------------------------------------|
B|---------------------------------------------|
G|-1-1-----x-8-8-----x-3-3------3---3-3-3-3--x-|
D|-2-2-----x-9-9-----x-4-4------4---4-4-4-4--x-|
A|-2-2-----x-9-9-----x-4-4------4---4-4-4-4--x-|
E|-0-0-----x-7-7-----x-2-2------2---2-2-2-2--x-|

e|---------------------------------|
B|---------------------------------|
G|-----4-------4-------4-3---3-4-3-|
D|---4-------4-------4-------------|
A|---------2-----2-----------------|
E|-0-----0---------2-------2-------|


[Bridge]

These are simply B, E, A, E chords.

e|---------------------------------|
B|---------7-----7---------9-----9-|
G|---------8-----8---------9-----9-|
D|---------9-----9---------9-----9-|
A|-9-9-9-9-9-9-9-9-7-7-7-7-7-7-7-7-|
E|---------------------------------|

e|---------5-----5-----------------|
B|---------5-----5---------9-----9-|
G|---------6-----6---------9-----9-|
D|-7-7-7-7-7-7-7-7---------9-----9-|
A|-----------------7-7-7-7-7-7-7-7-|
E|---------------------------------|

Repeat above however many times

Last time:

e|---------------------------------|
B|---------7-----7---------9-----9-|
G|---------8-----8---------9-----9-|
D|---------9-----9---------9-----9-|
A|-9-9-9-9-9-9-9-9-7-7-7-7-7-7-7-7-|
E|---------------------------------|

e|-5--5----------------------------|
B|-5--5----------------------------|
G|-6--6----------1---1-1-1-1-1-1-1-|
D|-7--7----------2---2-2-2-2-2-2-2-|
A|---------------2---2-2-2-2-2-2-2-|
E|---------------0---0-0-0-0-0-0-0-|


[Chorus]
 
e|---------------------------------|
B|---------------------------------|
G|-----4-------4-------4-------4---|
D|---4---4---4---4---4---4---4---4-|
A|-2---------------0---------------|
E|---------0---------------0-------|

Repeat however many times.


Ending
 

e|-2-2-2-2---0--0--x-x-x-x-|
B|-4-4-4-4---0--0--x-x-x-x-|
G|-4-4-4-4---1--1--x-x-x-x-|
D|-4-4-4-4---2--2--x-x-x-x-|
A|-2-2-2-2---2--2--x-x-x-x-|
E|-----------0--0--x-x-x-x-|

e|-0-0-0-0---0--0--x-x-x-x-|
B|-2-2-2-2---0--0--x-x-x-x-|
G|-2-2-2-2---1--1--x-x-x-x-|
D|-2-2-2-2---2--2--x-x-x-x-|
A|-0-0-0-0---2--2--x-x-x-x-|
E|-----------0--0--x-x-x-x-|

Repeat until this last time:

e|-0-0-0-0---2--2--2--2--2-|
B|-2-2-2-2---2--2--2--2--2-|
G|-2-2-2-2---3--3--3--3--3-|
D|-2-2-2-2---4--4--4--4--4-|
A|-0-0-0-0---4--4--4--4--4-|
E|-----------2--2--2--2--2-|

e|-------------------|
B|------4------------|
G|-1----4----1--3----|
D|-2----4----2--4--4-|
A|-2----2----2--4--4-|
E|-0---------0--2--2-|



************************************

| x  Dead note
| /  Slide up
| \  Slide down

************************************
Suggest correction
comments
print report bad tab
9 comments total. Showing first comments.
0 reply
duffmansweenie 54 Apr 15, 2006 06:43 PM

really good

0 reply
Learn_to_fly 40 May 30, 2006 06:04 PM

awesome man, dead on.

0 reply
mydogslinky 10 Jul 10, 2006 01:21 PM

perfect!

guest
You may want to rate the tab now too:
select rating
Wanna post a correction for this tab? Suggest correction