Oops, an error
Loading. Please wait.

Still Here Waiting bass

by Eve 6
188 views 1 this week
1 commentread comment
1 2 3 4 5
3 more votes to show rating
add to favorites
×
Save as Personal and add changes to this tab that will be seen only by you. Learn more ›
×
You can save this tab as Personal to edit and correct it or add notes. All changes will be seen only by you. Learn more »
launch autoscroll
font size
0
reset
guitar tuner
edit
Autoscroll
slow
fast
+/-
esc
set tempo
stop
Author
Difficulty
I'm pretty sure this is correct

intro (let guitar and drums start it off, then...)

main riff (no words)
G------------------------------------------------|
D------------------------------------------------|
A----------5----------5----------5---------------|
E-0-0-3-0-5--0-0-3-0-5--0-0-3-0-5--5-3-5-3-5-3-2-|

verse  (lay of the coffee and the kofka and the coughing)
G-----------------------------------|
D-----------------------------------|
A------------------55555555---------|
E-00000000-55555555--------55555555-|

pre chorus  (lay off the  ~  lay off the)
G------------------------------------|
D------------------------------------|
A-----------------5-5-5-5-5----------|
E-0--------5---------------5-5-5-5-5-|

chorus  (I'm still here waiting for you!)
G-----------------------------------------|
D-----------------------------------------|
A------55--------55--------55--------55---|
E-00-55--55-00-55--55-00-55--55-00-55--55-|

bridge ...it's just a longer version of the chorus...

this song is so awesome, i was surprised no one else tabbed it, so i had to.
comment please!

            
            
Suggest correction
Creating personal tab
Creating personal tab
You can edit any tab online and save it as your Personal.

You can edit, replace or remove any tab part or add personal notes – all changes will be seen only by you.

Personal tabs can be accessed anytime from any device, even offline.
Learn more »
Give kudos to tab author, rate the tab!
1 2 3 4 5
comments
print report bad tab
1 comment total.
0 reply
Th6r6a6sH 91 Dec 18, 2008 07:54 PM

G------------------------------------------------|
D------------------------------------------------|
A----------5----------5----------5---------------|
E-0-0-4-0-5--0-0-4-0-5--0-0-4-0-5--5-4-5-4-5-4-0-|

Sounds better to me.

guest
You may want to rate the tab now too:
select rating
Wanna post a correction for this tab? Suggest correction