Oops, an error
Loading. Please wait.

Think Twice tab

version 4
version 4

Whole song

Interactive

by Eve 6
1,321 views 1 this week
1 commentread comment
1 2 3 4 5
1 last vote to show rating
add to favorites
×
Save as Personal and add changes to this tab that will be seen only by you. Learn more ›
×
You can save this tab as Personal to edit and correct it or add notes. All changes will be seen only by you. Learn more »
launch autoscroll
font size
0
reset
how to read this tab
guitar tuner
edit
Autoscroll
slow
fast
+/-
esc
set tempo
stop
Author
Difficulty
I spent a while watching some live performaces of this song, and honestly, I
think I'm the only one who got the pre-chorus right. As for the rest of it, if it's not 
I don't know what is.

Intro: (x1)
|--11~--14~----7~--9~--11~--------11~--14~----7~--9~------------------------------------|
|-----------------------------------------------------------------9~--------------------|
|---------------------------------------------------------------------------------------|
|---------------------------------------------------------------------------------------|
|---------------------------------------------------------------------------------------|
|---------------------------------------------------------------------------------------|


Verse 1: (x2)
(clean)
|---------------------------------------------------------------------------------------|
|---------------------------------------------------------------------------------------|
|----------------------------------------4-4-4-4-4-4-4-4--------------------------------|
|--6-6-6-6-6-6-6-6----2-2-2-2-2-2-2-2----4-4-4-4-4-4-4-4----4-4-4-4-4-4-4-4-------------|
|--6-6-6-6-6-6-6-6----2-2-2-2-2-2-2-2----2-2-2-2-2-2-2-2----4-4-4-4-4-4-4-4-------------|
|--4-4-4-4-4-4-4-4----0-0-0-0-0-0-0-0-----------------------2-2-2-2-2-2-2-2-------------|


Pre-Chorus: (x4)
|----------------------------------------------------------------------------------------|
|----------------------------------------------------------------------------------------|
|----------------------6-6--44--------------------------8-8-6-6--------------------------|
|-------4-4-6-6-4-4------------6-6-6-6----6-6-9-9----------------------------------------|
|--6-6-----------------------------------------------------------------------------------|
|----------------------------------------------------------------------------------------|
pm..............................................................


*Play once at the end of each (x2) pre-chorus:
|---------------------|
|---------------------|
|--11\----------------|
|---9\----------------|
|---------------------|
|---------------------|


Chorus: (x4)
|---------7---------------------------4--------------------------------------------------|
|---------7---------------------------4--------------------------------------------------|
|-----------------------------4--4-------------------------------------------------------|
|--6--6---------2--2-2--------4--4--------4--4-4-----------------------------------------|
|--6--6---------2--2-2--------2--2--------4--4-4-----------------------------------------|
|--4--4---------0--0-0--------------------2--2-2-----------------------------------------|


Verse 2: (x5)
|----------------------------------------------------------------------------------------|
|----------------------------------------------------------------------------------------|
|--6--6--6--6--6----4--4--4--4-----------------------------------------------------------|
|-------------------------------------6--6--6--6--6----4--4--4—4-------------------------|
|----------------------------------------------------------------------------------------|
|----------------------------------------------------------------------------------------|
pm...............................................................


Pre-Chorus: (x4)
|----------------------------------------------------------------------------------------|
|----------------------------------------------------------------------------------------|
|----------------------6-6--44--------------------------8-8-6-6--------------------------|
|-------4-4-6-6-4-4------------6-6-6-6----6-6-9-9----------------------------------------|
|--6-6-----------------------------------------------------------------------------------|
|----------------------------------------------------------------------------------------|
pm..............................................................


*Play once at the end of each (x2) pre-chorus:
|---------------------|
|---------------------|
|--11\----------------|
|---9\----------------|
|---------------------|
|---------------------|


Chorus: (x4)
|---------7---------------------------4--------------------------------------------------|
|---------7---------------------------4--------------------------------------------------|
|-----------------------------4--4-------------------------------------------------------|
|--6--6---------2--2-2--------4--4--------4--4-4-----------------------------------------|
|--6--6---------2--2-2--------2--2--------4--4-4-----------------------------------------|
|--4--4---------0--0-0--------------------2--2-2-----------------------------------------|


Bridge: (x1)
|--2-2-2-2-2-2-2-2-2-2-2-2-2-2-2-2----4-4-4-4-4-4-4-4-6-6-6-6-6-6-6-6----2~--------------|
|--0-0-0-0-0-0-0-0-0-0-0-0-0-0-0-0----0-0-0-0-0-0-0-0-0-0-0-0-0-0-0-0----0~--------------|
|--x-x-x-x-x-x-x-x-x-x-x-x-x-x-x-x----x-x-x-x-x-x-x-x-x-x-x-x-x-x-x-x----x~--------------|
|--2-2-2-2-2-2-2-2-2-2-2-2-2-2-2-2----4-4-4-4-4-4-4-4-4-4-4-4-4-4-4-4----2~--------------|
|--2-2-2-2-2-2-2-2-2-2-2-2-2-2-2-2----4-4-4-4-4-4-4-4-4-4-4-4-4-4-4-4--------------------|
|--0-0-0-0-0-0-0-0-0-0-0-0-0-0-0-0----2-2-2-2-2-2-2-2-2-2-2-2-2-2-2-2--------------------|


(clean)
|-------------------------------------------------------------------------------------------|
|-------------------------------------------------------------------------------------------|
|----------4-------------------4--------------------4------------------4--------------4~----|
|------4-------4-----------4-------4------------4-------4----------4-------4----------4~----|
|------------------------------------------2------------------1-----------------------x~----|
|--4------------------0---------------------------------------------------------------4~----|


Verse 3: (x1)
Gtr 1.
|--11~--14~----7~--9~--11~--------11~--14~----7~--9~------------------------------------|
|-----------------------------------------------------------------9~--------------------|
|---------------------------------------------------------------------------------------|
|---------------------------------------------------------------------------------------|
|---------------------------------------------------------------------------------------|

Gtr 2.
(clean)
|---------------------------------------------------------------------------------------|
|---------------------------------------------------------------------------------------|
|--4~-----------------------------4~----------------------------------------------------|
|--4~-----------------------------4~----------------------------------------------------|
|--x~-----------------------------x~----------------------------------------------------|
|--4~-----------------------------4~----------------------------------------------------|


Gtr 1.
|--11~--14~----7~--9~--11~--------11~--14~----7~--9~------------------------------------|
|-----------------------------------------------------------------9~--------------------|
|---------------------------------------------------------------------------------------|
|---------------------------------------------------------------------------------------|
|---------------------------------------------------------------------------------------|

Gtr 2.
(clean)
|-------------------------------------------------------------------------------------------|
|-------------------------------------------------------------------------------------------|
|----------4-------------------4--------------------4------------------4--------------4~----|
|------4-------4-----------4-------4------------4-------4----------4-------4----------4~----|
|------------------------------------------2------------------1-----------------------x~----|
|--4------------------0---------------------------------------------------------------4~----|


Pre-Chorus: (x2)
(clean)
|-------------------------------------------------------------------------------------------|
|-------------------------------------------------------------------------------------------|
|------------------------4-4-4-4------------------------------------------------------------|
|--6-6-6-6----2-2-2-2----4-4-4-4----4-4-4-4-------------------------------------------------|
|--6-6-6-6----2-2-2-2----2-2-2-2----4-4-4-4-------------------------------------------------|
|--4-4-4-4----0-0-0-0---------------2-2-2-2-------------------------------------------------|


Chorus: (x2)
|---------7---------------------------4--------------------------------------------------|
|---------7---------------------------4--------------------------------------------------|
|-----------------------------4--4-------------------------------------------------------|
|--6--6---------2--2-2--------4--4--------4--4-4-----------------------------------------|
|--6--6---------2--2-2--------2--2--------4--4-4-----------------------------------------|
|--4--4---------0--0-0--------------------2--2-2-----------------------------------------|


Outro: (x4)
|-------------------------------------------------------------------------------------------|
|-------------------------------------------------------------------------------------------|
|------------------------4-4-4-4------------------------------------------------------------|
|--6-6-6-6----2-2-2-2----4-4-4-4----4-4-4-4-------------------------------------------------|
|--6-6-6-6----2-2-2-2----2-2-2-2----4-4-4-4-------------------------------------------------|
|--4-4-4-4----0-0-0-0---------------2-2-2-2-------------------------------------------------|

Notes:

- There are several different ways you can play the intro. The one I have looks the 
to what Siebels plays, but if you find something easier, go for it.

- It sounds better if you try to hit a harmonic on the high E's "7" and "4" during the 
If not, whatever.

- The last pre-chorus can also be palm muted, if you so desire.

            
            
Suggest correction
Creating personal tab
Creating personal tab
You can edit any tab online and save it as your Personal.

You can edit, replace or remove any tab part or add personal notes – all changes will be seen only by you.

Personal tabs can be accessed anytime from any device, even offline.
Learn more »
Give kudos to tab author, rate the tab!
1 2 3 4 5
comments
print report bad tab
1 comment total.
0 reply
adamatomic41 259 Mar 21, 2007 02:39 PM

I made a mistake on the second verse; it's actually this:

|----------------------------------------------------------------------------------------|
|----------------------------------------------------------------------------------------|
|----------------------------------------------------------------------------------------|
|--6--6--6--6--6----4--4--4--4-----------------------------------------------------------|
|-------------------------------------6--6--6--6--6----4--4--4--4------------------------|
|----------------------------------------------------------------------------------------|
pm...............................................................


Sorry

guest
You may want to rate the tab now too:
select rating
Wanna post a correction for this tab? Suggest correction