Oops, an error
Loading. Please wait.

Think Twice tab

version 5
version 5

Whole song

Interactive

by Eve 6
5,866 views 1 this week
no commentswrite comment
1 2 3 4 5
x 4
add to favorites
×
Save as Personal and add changes to this tab that will be seen only by you. Learn more ›
×
You can save this tab as Personal to edit and correct it or add notes. All changes will be seen only by you. Learn more »
launch autoscroll
font size
0
reset
how to read this tab
guitar tuner
edit
Autoscroll
slow
fast
+/-
esc
set tempo
stop
Author
SONG:		"THINK TWICE"
ARTIST:		Eve 6
ALBUM:		It's All In Your Head


E-MAIL:		flint.the.fireforge@gmail.com
TUNING:		Standard

INS.:		this tab includes two guitars, breaking up rhythmn and leads. You
can easily play 
with one guitar like Eve 6, just use guitar 1's parts.

COMMENTS
1. I've seen a lot of tabs for this song, but they seemed to be off a little to me, so...
2. For the INTRO I have added what I think is the harmonic riff played during live shows
(or at least the talk show spots).
oh, and IAIYH rocks!

			::INTRO 1 - HARMONICS::

Guitar 1
e|--------------------------------|------------------------------------|
B|--------------------------------|------------------------------------|
G|--------------------------------|------------------------------------|
D|--<7>----------------------<7>--|-----<7>----------------------<12>--|
A|-------<7>------<12>------------|----------<7>-------<12>------------|
E|------------------------9-------|----------------------------9-------|
Guitar 1 (cont.)
e|--------------------------------|---------------------------------|
B|--------------------------------|---------------------------------|
G|--------------------------------|---------------------------------|
D|--<7>----------------------<7>--|-----<7>-------------------------|
A|-------<7>------<12>------------|----------<7>-------<12>---------|
E|------------------------9-------|------------------------------9--|

			::INTRO 2 - PICKING::

Guitar 1
e|-11---14--------------11-------11---14--------------------|
B|-------------12---14-----------------------12---14--------|
G|------------------------------------------------------13--|
D|----------------------------------------------------------|
A|----------------------------------------------------------|
E|----------------------------------------------------------|
Guitar 2
e|------------------------------------------------------------------|
B|------------------------------------------------------------------|
G|------------------------------------------------------------------|
D|---------------------------------4-4-4-4-4-4-4-4------------------|
A|-6-6-6-6-6-6-6-6-2-2-2-2-2-2-2-2-2-2-2-2-2-2-2-2-4-4-4-4-4-4-4-4--|
E|-4-4-4-4-4-4-4-4-0-0-0-0-0-0-0-0-----------------2-2-2-2-2-2-2-2--|

			::VERSE 1::
		("When all is said...	")
Guitar 1
e|------------------------------------------------------------------|
B|------------------------------------------------------------------|
G|------------------------------------------------------------------|
D|---------------------------------4-4-4-4-4-4-4-4------------------|(2x)
A|-6-6-6-6-6-6-6-6-2-2-2-2-2-2-2-2-2-2-2-2-2-2-2-2-4-4-4-4-4-4-4-4--|
E|-4-4-4-4-4-4-4-4-0-0-0-0-0-0-0-0-----------------2-2-2-2-2-2-2-2--|

			::PRE-CHORUS::
		("Think twice before you touch my girl")
Guitar 1 (Palm-Muted)        play this whole part 2x
e|----------------------------------|------------------------------|
B|----------------------------------|------------------------------|
G|----------------------------------|-------------4-4--------------|
D|-----------2-2-4-4-6-6-4-4-2-2-4--|-2-2-4-4-6-6----6-6-4-4-6-6~--|
A|---4--4-4-------------------------|------------------------------|
E|----------------------------------|------------------------------|
Guitar 1 (cont.)
e|----------------------------------|--------------------------------|
B|----------------------------------|--------------------------------|
G|----------------------------------|-------------4-4------------6~--|
D|-----------2-2-4-4-6-6-4-4-2-2-4--|-2-2-4-4-6-6----6-6-4-4-6-6-4~--|
A|---4--4-4-------------------------|--------------------------------|
E|----------------------------------|--------------------------------|

Guitar 2
e|---------------------------------|----------------------------------|
B|---------------------------------|----------------------------------|
G|---------------------------------|----------------------------------|
D|---------------------------------|-4-4-4-4-4-4-4-4------------------| (2x)
A|-6-6-6-6-6-6-6-6-2-2-2-2-2-2-2-2-|-2-2-2-2-2-2-2-2-4-4-4-4-4-4-4-4--|
E|-4-4-4-4-4-4-4-4-0-0-0-0-0-0-0-0-|-----------------2-2-2-2-2-2-2-2--|

			::CHORUS::
		("She spreads her love")
Both Guitars
e|------------------------|-------------------------|
B|----------7-7-7---------|----------4-4-4----------|
G|------------------------|-4--4-4------------------| (4x)
D|--6--6-6--------2-2-2-2-|-4--4-4---------4-4-4-4--|
A|--6--6-6--------2-2-2-2-|-2--2-2---------4-4-4-4--|
E|--4--4-4--------0-0-0-0-|----------------2-2-2-2--|

			::POST-CHORUS::

Guitar 1
e| |--------------------|
B| |--------------------|
G| |--------------------|
D| |-6~-----------------|
A| |-6~-----------------|
E| |-4~-----------------|
Guitar 2
e| |--------------------------------------|
B| |--------------------------------------|
G| |-4-4-4-4--4-4-4-4--4-4-4-4--4-4-4-4---|
D| |-4-4-4-4--4-4-4-4--4-4-4-4--4-4-4-4---|
A| |-2-2-2-2--2-x-x-x--x-x-x-x--x-x-x-x---|
E| |------------4-4-4--4-2-2-2--2-0-0-0---|

			::VERSE 2::
		("Wait til the day...	")
Both Guitars
e|--------------------------------------|
B|--------------------------------------|
G|-4-4-4-4--4-4-4-4--4-4-4-4--4-4-4-4---|
D|-4-4-4-4--4-4-4-4--4-4-4-4--4-4-4-4---| (4x)
A|-2-2-2-2--x-x-x-x--x-x-x-x--x-x-x-x---|
E|----------4-4-4-4--2-2-2-2--0-0-0-0---|

			::PRE-CHORUS::
		("Think twice before you touch my girl")
Guitar 1 (Palm-Muted)        play this whole part 2x
e|----------------------------------|------------------------------|
B|----------------------------------|------------------------------|
G|----------------------------------|-------------4-4--------------|
D|-----------2-2-4-4-6-6-4-4-2-2-4--|-2-2-4-4-6-6----6-6-4-4-6-6~--|
A|---4--4-4-------------------------|------------------------------|
E|----------------------------------|------------------------------|
Guitar 1 (cont.)
e|----------------------------------|--------------------------------|
B|----------------------------------|--------------------------------|
G|----------------------------------|-------------4-4------------6~--|
D|-----------2-2-4-4-6-6-4-4-2-2-4--|-2-2-4-4-6-6----6-6-4-4-6-6-4~--|
A|---4--4-4-------------------------|--------------------------------|
E|----------------------------------|--------------------------------|

Guitar 2
e|---------------------------------|----------------------------------|
B|---------------------------------|----------------------------------|
G|---------------------------------|----------------------------------|
D|---------------------------------|-4-4-4-4-4-4-4-4------------------| (2x)
A|-6-6-6-6-6-6-6-6-2-2-2-2-2-2-2-2-|-2-2-2-2-2-2-2-2-4-4-4-4-4-4-4-4--|
E|-4-4-4-4-4-4-4-4-0-0-0-0-0-0-0-0-|-----------------2-2-2-2-2-2-2-2--|

			::CHORUS::
		("She spreads her love")
Both Guitars
e|------------------------|-------------------------|
B|----------7-7-7---------|----------4-4-4----------|
G|------------------------|-4--4-4------------------| (4x)
D|--6--6-6--------2-2-2-2-|-4--4-4---------4-4-4-4--|
A|--6--6-6--------2-2-2-2-|-2--2-2---------4-4-4-4--|
E|--4--4-4--------0-0-0-0-|----------------2-2-2-2--|

			::BRIDGE/PT1::
		     ("What is it you really want")
Guitar 1
e|-----------------|this is where the words come in----------------------|
B|-----------------|-----------------------------------------------------|
G|-----------------|-----------------------------------------------------|
D|-2-2-2-2-2-2-2-2-|-2-2-2-2-2-2-2-2-4-4-4-4-4-4-4-4-4-4-4-4-4-4-4-6///--|
A|-2-2-2-2-2-2-2-2-|-2-2-2-2-2-2-2-2-4-4-4-4-4-4-4-4-4-4-4-4-4-4-4-6///--|
E|-0-0-0-0-0-0-0-0-|-0-0-0-0-0-0-0-0-2-2-2-2-2-2-2-2-2-2-2-2-2-2-2-4///--|
Guitar 2
e|-----------------|---------------------------------------------------|
B|-----------------|---------------------------------------------------|
G|-----------------|---------------------------------------------------|
D|-2-2-2-2-2-2-2-2-|-2-2-2-2-2-2-2-2-4-4-4-4-4-4-4-4-4-4-4-4-4-4-4-4~--|
A|-2-2-2-2-2-2-2-2-|-2-2-2-2-2-2-2-2-4-4-4-4-4-4-4-4-4-4-4-4-4-4-4-4~--|
E|-0-0-0-0-0-0-0-0-|-0-0-0-0-0-0-0-0-2-2-2-2-2-2-2-2-2-2-2-2-2-2-2-2~--|

Guitar 1
e|---------------------------------|
B|---------------------------------|
G|-----4----4------4-----4-----4~--|
D|----4-4--4-4----4-4---4-4----4~--|
A|--------------2--------------x---|
E|--4-----0------------2-------4~--|
Guitar 2
e|----------------------------------|
B|----------------------------------|
G|------4-----4-----4-----4-----4~--|
D|------------------------------4~--|
A|------------------------------x---|
E|------------------------------4~--|

			::BRIDGE/PT2::
		("When I showed up...	")

Guitar 1
e|------|------|------|------|-11--14-|--------11--|-11--14-|-------------|
B|------|------|------|------|--------|-12--14-----|--------|-12--14------|
G|------|------|------|------|--------|------------|--------|---------13--|
D|------|------|------|------|--------|------------|--------|-------------|
A|------|------|------|------|--------|------------|--------|-------------|
E|------|------|------|------|--------|------------|--------|-------------|
Guitar 2
e|-------|-------|-------|-------|-------|-------|-------|-------|
B|-------|-------|-------|-------|-------|-------|-------|-------|
G|-------|-4-----|-------|-4-----|-------|-4-----|-------|-4-----|
D|-6--2--|-4--4--|-6--2--|-4--4--|-6--2--|-4--4--|-6--2--|-4--4--|
A|-6--2--|-2--4--|-6--2--|-2--4--|-6--2--|-2--4--|-6--2--|-2--4--|
E|-4--0--|----2--|-4--0--|----2--|-4--0--|----2--|-4--0--|----2--|

			::FINAL CHORUS::
		("Cuz she spreads her love")
Both Guitars
e|-------------------------------------|
B|-------------------------------------|
G|-------------------4-4-4-4-----------|
D|-6-6-6-6--2-2-2-2--4-4-4-4--4-4-4-4--| (2x)
A|-6-6-6-6--2-2-2-2--2-2-2-2--4-4-4-4--|
E|-4-4-4-4--0-0-0-0-----------2-2-2-2--|
(cont.)
e|-------------------------------------------------|
B|----------7-7-7-------------------4-4-4----------|
G|-------------------------4--4-4------------------|
D|--6--6-6--------2-2-2-2--4--4-4---------4-4-4-4--|
A|--6--6-6--------2-2-2-2--2--2-2---------4-4-4-4--|
E|--4--4-4--------0-0-0-0-----------------2-2-2-2--|
(cont.)
e|-------------------------------------------------------|
B|----------7-7-7-------------------4-4-4----------------|
G|-------------------------4--4-4------------------------|
D|--6--6-6--------2-2-2-2--4--4-4---------4-4-XX--4-4-4--|
A|--6--6-6--------2-2-2-2--2--2-2---------4-4-XX--4-4-4--|
E|--4--4-4--------0-0-0-0-----------------2-2-XX--2-2-2--|

			::CODA::
		("Think twice 'fore you touch my girl!")
Both Guitars
e|-------------------------------------|
B|-------------------------------------|
G|-------------------4-4-4-4-----------|
D|-6-6-6-6--2-2-2-2--4-4-4-4--4-4-4-4--|
A|-6-6-6-6--2-2-2-2--2-2-2-2--4-4-4-4--|
E|-4-4-4-4--0-0-0-0-----------2-2-2-2--|
(cont.)
e|---------------------------------------|
B|---------------------------------------|
G|-------------------4-4-4-4-------------|
D|-6-6-6-6--2-2-2-2--4-4-4-4--4-4-XX-XX--|
A|-6-6-6-6--2-2-2-2--2-2-2-2--4-4-XX-XX--|
E|-4-4-4-4--0-0-0-0-----------2-2-XX-XX--|
(cont.)
e|------------------------------------|
B|------------------------------------|
G|-------------------4-4-4-4----------|
D|-6-6-6-6--2-2-2-2--4-4-4-4-4-4-4-4--|
A|-6-6-6-6--2-2-2-2--2-2-2-2-4-4-4-4--|
E|-4-4-4-4--0-0-0-0----------2-2-2-2--|
(cont.)
e|--------------------------|
B|--------------------------|
G|-------------------4-4-4--|
D|-6-6-6-6--2-2-2-2--4-4-4--|
A|-6-6-6-6--2-2-2-2--2-2-2--|
E|-4-4-4-4--0-0-0-0--^------|
		     ^"come around!"

			END ON:
		     ("No more!")
Guitar 1
e|--------|
B|--------|
G|--------|
D|--4/2~--|
A|--4/2~--|
E|--2/0~--|
Guitar 2
e|-------|
B|-------|
G|-------|
D|--6~~--|
A|--6~~--|
E|--4~~--|

==KEY====================
| <#>	harmonic
| ~	sustain
| x	mute note
| /	slide
| ///	slide/distort?
===============================================================================

            
            
Suggest correction
Creating personal tab
Creating personal tab
You can edit any tab online and save it as your Personal.

You can edit, replace or remove any tab part or add personal notes – all changes will be seen only by you.

Personal tabs can be accessed anytime from any device, even offline.
Learn more »
comments
print report bad tab
guest
You may want to rate the tab now too:
select rating
Wanna post a correction for this tab? Suggest correction