Oops, an error
Loading. Please wait.

Stop And Go Man tab

by Even
112 views 1 this week
no commentswrite comment
1 2 3 4 5
2 more votes to show rating
add to favorites
×
Save as Personal and add changes to this tab that will be seen only by you. Learn more ›
×
You can save this tab as Personal to edit and correct it or add notes. All changes will be seen only by you. Learn more »
launch autoscroll
font size
0
reset
how to read this tab
guitar tuner
edit
Autoscroll
slow
fast
+/-
esc
set tempo
stop
Author
Difficulty
Stop And Go Man – Even

Tabbed by: Jucko

Tuning: Standard

Capo: No

Intro 
                        
  G5      G                               
|-3~------3-3---3------3---3-3---3------3---3-3---3------3---3-3---3------3---3-|
|-3~------0-0-----0-h1---1-0-0-----0-h1---1-0-0-----0-h1---1-0-0-----0-h1---1-0-|
|-0~------0-0--------------0-0--------------0-0--------------0-0--------------0-|
|-0~------0-0--------------0-0--------------0-0--------------0-0--------------0-|
|-2~------2-2--------------2-2--------------2-2--------------2-2--------------2-|
|-3~------3-3--------------3-3--------------3-3--------------3-3--------------3-|

Verse 
  
  G       C       G       C
|-3---3-3-3-3-3-3-3---3-3-3-3-3-3-|
|-0---0-0-1-1-1-1-0---0-0-1-1-1-1-|
|-0---0-0-0-0-0-0-0---0-0-0-0-0-0-|
|-0---0-0-2-2-2-2-0---0-0-2-2-2-2-|
|-2---2---3-3-3-3-2---2---3-3-3-3-|
|-3---3-----------3---3-----------|

Chorus
  
  A         G                             Am
|-0~--------3---3-----3-----3---3-----3-----0~--------|
|-1~--------0-----0-h1--1-0-0-----0-h1--1-0-1~--------|
|-2~--------0---------------0---------------2~--------|
|-2~--------0---------------0---------------2~--------|
|-0~--------2---------------2---------------0~--------|
|-----------3---------------3-------------------------|

  Em       EmM7     C       F       G
|-0--------0--------0---0---1-1-1-1-3-3-3-3---------|
|-0--------0--------1---1---1-1-1-1-0-0-0-0---------|
|-0--------0--------0---0---2-2-2-2-0-0-0-0---------|
|-2--------1--------2---2---3-3-3-3-0-0-0-0---------|
|-2--------2--------3---3---3-3-3-3-2-2-2-2---------|
|-0--------0----------------1-1-1-1-3-3-3-3---------|

Lead Break
  
  Am                                G       C
|-0-------0-------------------------3---3-3-3-3-3-3-|
|-1---1-3---3/5-5-3-1-0-0h1-0-----0-0---0-0-1-1-1-1-|
|-2---------------------------0h2---0---0-0-0-0-0-0-|
|-2---------------------------------0---0-0-2-2-2-2-|
|-0---------------------------------2---2---3-3-3-3-|
|-----------------------------------3---3-----------|

  A               Em         EmM7    C       F       G
|-0---0--2--5--7---------------------0---0---1-1-1-1-3-3-3-3----|
|-1----------------------------------1---1---1-1-1-1-0-0-0-0----|
|-2------------------------0---------0---0---2-2-2-2-0-0-0-0----|
|-2----------------0-2---4---1--2-4--2---2---3-3-3-3-0-0-0-0----|
|-0----------------------------------3---3---3-3-3-3-2-2-2-2----|
|--------------------------------------------1-1-1-1-3-3-3-3----|

Intro 

G x 4

Verse 1

      G        C      G   C    
I'm a stop and go man now
        G         C      G   C
I guess I've made it somehow
G       C  G     C
Shot my education 
        G        C        G     C
And i'm going to rule the nation

Chorus

Am              G 
  If it's alright
    Am
And everything's alright
       Em             EmM7
As the sun sets on my street tonight

C   F   G

Verse 2

       G        C      G   C    
He's a train conductor now
        G       C     G    C    
I guess he made it somehow
G        C  G     C    
Shot his education 
      G          C       G      C    
For a job at the railway station

Chorus

Am              G
  If it's alright
    Am
And everything's alright
       Em             EmM7
As the sun sets on my street tonight

C   F   G

Lead Break

Am   G   C

Am   Em  EmM7

C F G

Verse 3

      NC    
I'm a stop and go man now
        G         C      G   C
I guess I've made it somehow
G       C  G     C
Shot my education 
        G        C        G     C
And i'm going to rule the nation

Chorus

Am                G
   If it's alright
    Am
And everything's alright
       Em             EmM7
As the sun sets on my street tonight

C   F   G

       Em          EmM7
Not another mash-potato fight

C   F   G

           Em                        EmM7
You know I don't see things when the time is right

C  F  G

    G
The time is right

The end



************************************

| h  Hammer-on
| /  Slide up
| ~  Vibrato

************************************

            
            
Suggest correction
Creating personal tab
Creating personal tab
You can edit any tab online and save it as your Personal.

You can edit, replace or remove any tab part or add personal notes – all changes will be seen only by you.

Personal tabs can be accessed anytime from any device, even offline.
Learn more »
Give kudos to tab author, rate the tab!
1 2 3 4 5
comments
print report bad tab
guest
You may want to rate the tab now too:
select rating
Wanna post a correction for this tab? Suggest correction