Oops, an error
Loading. Please wait.

Class Of 84 Tab

244 views 1 this week
no commentswrite comment
1 2 3 4 5
please rate
add to favorites
launch autoscroll
font size
0
reset
how to read this tab
guitar tuner
Tab Pro tools
  • play this tab
  • loop segment
  • change instrument
  • show fretboard
  • metronome
Autoscroll
slow
fast
+/-
esc
set tempo
stop
Contributor
Difficulty
novice
I think it's pretty correct all the way through.

Intro: G

G
She's going out tonight
D
Fading fast into the city lights
C
Sooner or later she'll be gone
G
Heresy rock and roller
D
No one could ever control her
C
She marches to her own small songs

Em      C                     G
So you found the bright light baby
            C         G     G/F#      Em
  (So you found the bright light baby)
       C                  G
In a place somewhere out west
         C       G      G/F#   Em
  (In a place somewhere out west)
                C              G
You're still chasing sunsets lately
                   C     G  G/F#     Em
  (You're still chasing sunsets lately)
              C              D
You've ended up like such a mess

 G               D                
Inside, outside you're still screamin'
 Em                       C
'Bout those things that you've been dreamin'
 G         D                   Em       C 
Sooner or later they'll come crashing down

G
Fade out to lonely blue
D                          
Memories of summers golden hue
C
Faded days long dead and gone
G
Tears run cold and longer
D
Familiar ghosts that always haunt her
C
All the right ways she went wrong

Em      C                     G
So you found the bright light baby
            C         G     G/F#      Em
  (So you found the bright light baby)
       C                  G
In a place somewhere out west
         C       G      G/F#   Em
  (In a place somewhere out west)
                C              G
You're still chasing sunsets lately
                   C     G  G/F#     Em
  (You're still chasing sunsets lately)
              C              D
You've ended up like such a mess

 G               D                
Inside, outside you're still screamin'
 Em                       C
'Bout those things that you've been dreamin'
 G         D                   Em       C 
Sooner or later they'll come crashing down

Solo: | Em | C | G | D/F# | 
      | Em | C | G | D | 

e|--------------------------------|
B|--------------------------------|
G|--------------------------------|
D|--3--4--2-----------------------|  (X2)
A|-----------5--3--2--3--5--3-----|
E|-----------------------------3--|

e|--------------------------------------------------------------------|
B|--------------------------------------------------------------------|
G|----------4-4-5-5---------4-4-5-5----------4-4-5-5-7-7-5-5-4-4------|
D|--5-5-7-7---------5-5-7-7----------5-5-7-7---------------------7-7--|
A|--------------------------------------------------------------------|
E|--------------------------------------------------------------------|

e|--------------------------------------------------------------------|
B|------------------------------------8--8-8-8-8-8-8-7-7-7-7----------|
G|----------4-4-5-5---------4-4-5-5--------------------------7-7-7-7--|
D|--5-5-7-7---------5-5-7-7-------------------------------------------|
A|--------------------------------------------------------------------|
E|--------------------------------------------------------------------|

Bridge: | G | Am | C | C |
        | G | Am | C | C |

G   Am    C
Inside, outside
G   Am    C       Em
Inside, outside
comments
We did not receive enough feedback on this tab! Please rate:
print report bad tab
1 2 3 4 5
I want to post or [tab]
guest
You may want to rate the tab now too:
select rating
Please do not post tabs as comments. Select "correction" instead!