Oops, an error
Loading. Please wait.

Drops Of Amber tab

52 views 1 this week
no commentswrite comment
1 2 3 4 5
3 more votes to show rating
add to favorites
×
Save as Personal and add changes to this tab that will be seen only by you. Learn more ›
×
You can save this tab as Personal to edit and correct it or add notes. All changes will be seen only by you. Learn more »
launch autoscroll
font size
0
reset
how to read this tab
guitar tuner
edit
Autoscroll
slow
fast
+/-
esc
set tempo
stop
-------------------------------------------------------------------------------
                             DROPS OF AMBER - EVENOIRE
-------------------------------------------------------------------------------
Tabbed by: Sleeperservice
E-mail: sleeperservice@gmail.com

Tuning: DADGBE


    GUITAR 1
                                              PM-|  PM-|  PM-|  
e|-------------------------------------------------------------------|
B|-------------------------------------------------------------------|
G|-------------------------------------------------------------------|
D|------------------------------------------5-----3-----8------------|
A|-7777-7777-6666-8888-7777-7777-7777-7777--5-----3-----8------------|
D|------------------------------------------5-5-5-3-3-3-8-8-8--------|
 |
 |  GUITAR 2
 |                                    
e|-------------------------------------------------------------------|
B|-8----------------------------------------8------------------------|
G|------------------------------------------------10----5------------|
D|-------------------------------------------------------------------|
A|-------------------------------------------------------------------|
D|-------------------------------------------------------------------|
 

     PM-|  PM-|  PM-|  PM-|  PM-|  PM-|  PM-|  PM-|  PM-|    
e|---------------------------------------------------------|
B|---------------------------------------------------------|
G|---------------------------------------------------------|
D|-6-----6-----6-----6-----6-----6-----6-----6-----6-------|
A|-6-----6-----6-----6-----6-----6-----6-----6-----6-------|
D|-6-6-6-6-6-6-6-6-6-6-6-6-6-6-6-6-6-6-6-6-6-6-6-6-6-6-6---|
 | 
e|---------------------------------------------------------|
B|---------------------------------------------------------|
G|-------------------------------------------11\-----------|
D|-7-----------8-----------7-----------8-------------------|
A|---------------------------------------------------------|
D|---------------------------------------------------------|


      PM--|    PM--|    PM--|    PM--|    PM--|    PM--|    PM--|    PM--|
e|---------------------------------------------------------------------------|
B|---------------------------------------------------------------------------|
G|---------------------------------------------------------------------------|
D|-10-------10-------10-------10-------10-------10-------10-------10---------|
A|-10-------10-------10-------10-------10-------10-------10-------10---------|
D|-10-10-10-10-10-10-10-10-10-10-10-10-10-10-10-10-10-10-10-10-10-10-10-10---|
 |
e|---------------------------------------------------------------------------|
B|-------------------------------------------------------------11\-----------|
G|-7-----------------8------------------7----------------8-------------------|
D|---------------------------------------------------------------------------|
A|---------------------------------------------------------------------------|
D|---------------------------------------------------------------------------|


     PM-|  PM-|  PM-|  PM-|  PM-|  PM-|  PM-| 
e|-------------------------------------------------|
B|-------------------------------------------------|
G|-------------------------------------------------|
D|-6-----6-----6-----6-----6-----6-----6-----6\----|
A|-6-----6-----6-----6-----6-----6-----6-----6\----|
D|-6-6-6-6-6-6-6-6-6-6-6-6-6-6-6-6-6-6-6-6-6-6\----|
 |
e|-------------------------------------------------|
B|-------------------------------------------------|
G|-7-----------8-----------10----------------------|
D|-------------------------------------------------|
A|-------------------------------------------------|
D|-------------------------------------------------|


e|--------------------------------------------------------------------------------------|
B|--------------------------------------------------------------------------------------|
G|--------------------------------------------------------------------------------------|
D|--------------------------------------------------------------------------------------|
A|-3333-3333-3333-3333-3333-3333-3333-3333-4444-4444-4444-4444-4444-4444-4444-4444------|
D|--------------------------------------------------------------------------------------|
|     
e|--------------------------------------------------------------------------------------|
B|--------------------------------------------------------------------------------------|
G|-------9-10-12-13--12h13p12-10-9------------------10-----13---------------------------|
D|-10-11--------------------------10-10h11-11-------------------------------------------|
A|--------------------------------------------------------------------------------------|
D|--------------------------------------------------------------------------------------|
     

e|---------------------------------------------------------------------------------------------------|
B|---------------------------------------------------------------------------------------------------|
G|-7-7-7-7-7--7-7-7-7-7--7-7-7-7-7--7-7-7-7-7--8-x-x-8-x-x-8-x-x-8-x-x-10-x-x-10-x-x-10-x-x-10-x-x---| X4
D|-7-7-7-7-7--7-7-7-7-7--7-7-7-7-7--7-7-7-7-7--8-x-x-8-x-x-8-x-x-8-x-x-10-x-x-10-x-x-10-x-x-10-x-x---|
A|-5-5-5-5-5--5-5-5-5-5--5-5-5-5-5--5-5-5-5-5--6-x-x-6-x-x-6-x-x-6-x-x-8--x-x-8--x-x-8--x-x-8--x-x---|
D|---------------------------------------------------------------------------------------------------|
 |
 | Guitars unison on repeats
e|---------------------------------------------------------------------------------------------------|
B|---------------------------------------------------------------------------------------------------|
G|-14------------------------------------------8-x-x-8-x-x-8-x-x-8-x-x-10-x-x-10-x-x-10-x-x-10-x-x---|X4
D|---------------------------------------------8-x-x-8-x-x-8-x-x-8-x-x-10-x-x-10-x-x-10-x-x-10-x-x---|
A|---------------------------------------------6-x-x-6-x-x-6-x-x-6-x-x-8--x-x-8--x-x-8--x-x-8--x-x---|
D|---------------------------------------------------------------------------------------------------|


  Let Ring................................................
e|-------------------------------------------------------------|
B|-------------------------------------------------------------|
G|-----0-----0-----0-----0---------0-----0-----0-----0---------| X2
D|---3-----3-----3-----3-----3---3-----3-----3-----3-----------|
A|-------------------------------------------------------------|
D|-1-----1-----1-----1-----3---5-----5-----5-----5-----3-------|
 |
 |
 |                                                 2nd time only
e|-------------------------------------------------------------|
B|-------------------------------------------------------------|
G|-------------------------------------------------------------| X2
D|-------------------------------------------------------------|
A|-------------------------------------------------------------|
D|-------------------------------------------------------(12\)-|



  PM-|   PM-|  PM-|  PM-|     PM-|  PM-|  PM-|  PM-|  PM-|  PM
e|------------------------------------------------------------------|
B|------------------------------------------------------------------|
G|------------------------------------------------------------------|  X4
D|-----5-----5-----5-----5--------------5-----5-----5-----5----3p2--|
A|---1-----1-----1-----1--------3-----5-----5-----5-----5-----------|
D|-1-----1-----1-----1--------3-----5-----5-----5-----5-----5-------|
 |
 | PM............................................................  
e|------------------------------------------------------------------|
B|------------------------------------------------------------------|
G|------------------------------------------------------------------| X4
D|-1-1-1-1--1-1-1-1--1-1-1-1--3-3--5-5-5-5--5-5-5-5--5-5-5-5--8-8---|
A|-1-1-1-1--1-1-1-1--1-1-1-1--3-3--5-5-5-5--5-5-5-5--5-5-5-5--8-8---|
D|-1-1-1-1--1-1-1-1--1-1-1-1--3-3--5-5-5-5--5-5-5-5--5-5-5-5--8-8---|

            PM--|          PM---|         PM--|          PM---|
e|-----------------------------------------------------------------|
B|-----------------------------------------------------------------|
G|-----------------------------------------------------------------|
D|-1----3p2-1-1-1-1----3p2-1-1-1-1----3p2-1-1-1-1----3p2--1-1-1----|
A|-1--------1-1-1-1--------1-1-1-1--------1-1-1-1---------1-1-1----|
D|-1--------1-1-1-1--------1-1-1-1--------1-1-1-1---------1-1-1----|
 |
 |           PM--|          PM---|         PM--|          PM---|
e|-----------------------------------------------------------------|
B|-----------------------------------------------------------------|
G|-----------------------------------------------------------------|
D|-1----3p2-1-1-1-1----3p2-1-1-1-1----3p2-------1----3p2--1-1-1----|
A|-1--------1-1-1-1--------1-1-1-1--------1-1-1-1---------1-1-1----|
D|-1--------1-1-1-1--------1-1-1-1--------1-1-1-1---------1-1-1----|


e|--------------------------------------------------------------|
B|--------------------------------------------------------------|
G|---------5---------------------------------------------5-7----|
D|-5---------8-7-5---------------------------------5-7-8--------|
A|-5---------------8-6-5-3---------3-------5--------------------|
D|-5-----------------------5------------------------------------|
 |
 |
e|---------------------------------------------------------------|
B|---------------------------------------------------------------|
G|---------------------------------------------------------------|
D|-5--x-x--5--x-x--5--x-x--5--x-x--5--x-x--5--x-x--5--x-x--5\----|
A|-5--x-x--5--x-x--5--x-x--5--x-x--5--x-x--5--x-x--5--x-x--5\----|
D|-5--x-x--5--x-x--5--x-x--5--x-x--5--x-x--5--x-x--5--x-x--5\----|

            PM--|          PM---|         PM--|          PM---|
e|-----------------------------------------------------------------|
B|-----------------------------------------------------------------|
G|-----------------------------------------------------------------|
D|-1----3p2-1-1-1-1----3p2-1-1-1-1----3p2-1-1-1-1----3p2--1-1-1----|
A|-1--------1-1-1-1--------1-1-1-1--------1-1-1-1---------1-1-1----|
D|-1--------1-1-1-1--------1-1-1-1--------1-1-1-1---------1-1-1----|
 |
 |           PM--|          PM---|         PM--|          PM---|
e|-----------------------------------------------------------------|
B|-----------------------------------------------------------------|
G|-----------------------------------------------------------------|
D|-1----3p2-------1----3p2-------1----3p2-------1----3p2-----------|
A|-1--------1-1-1-1--------1-1-1-1--------1-1-1-1---------1-1-1----|
D|-1--------1-1-1-1--------1-1-1-1--------1-1-1-1---------1-1-1----|


e|---------------------------------------------------------------|
B|---------------------------------------------------------------|
G|---------5---------------------------------------------5-7-----|
D|-5---------8-7-5---------------------------------5-7-8---------|
A|-5---------------8-6-5-3---------3-------5---------------------|
D|-5-----------------------5-------------------------------------|
 |
e|---------------------------------------------------------------|
B|---------------------------------------------------------------|
G|---------------------------------------------------------------|
D|-5--x-x--5--x-x--5--x-x--5--x-x--5--x-x--5--x-x--5--x-x--5\----|
A|-5--x-x--5--x-x--5--x-x--5--x-x--5--x-x--5--x-x--5--x-x--5\----|
D|-5--x-x--5--x-x--5--x-x--5--x-x--5--x-x--5--x-x--5--x-x--5\----|

                                              PM-|  PM-|  PM-|  
e|---------------------------------------------------------------|
B|---------------------------------------------------------------| 
G|---------------------------------------------------------------|
D|------------------------------------------5-----3-----8--------|
A|-7777-7777-6666-8888-7777-7777-7777-7777--5-----3-----8--------|
D|------------------------------------------5-5-5-3-3-3-8-8-8----|
 |
 |   
 |                                  
e|---------------------------------------------------------------|
B|-8----------------------------------------8--------------------|
G|------------------------------------------------10----5--------|
D|---------------------------------------------------------------|
A|---------------------------------------------------------------|
D|---------------------------------------------------------------|


     PM-|  PM-|  PM-|  PM-|  PM-|  PM-|  PM-|  PM-|  PM-|   
e|----------------------------------------------------------|
B|----------------------------------------------------------|
G|----------------------------------------------------------|
D|-6-----6-----6-----6-----6-----6-----6-----6-----6--------|
A|-6-----6-----6-----6-----6-----6-----6-----6-----6--------|
D|-6-6-6-6-6-6-6-6-6-6-6-6-6-6-6-6-6-6-6-6-6-6-6-6-6-6-6----|
 | 
e|----------------------------------------------------------|
B|----------------------------------------------------------|
G|-------------------------------------------11\------------|
D|-7-----------8-----------7-----------8--------------------|
A|----------------------------------------------------------|
D|----------------------------------------------------------|


      PM--|    PM--|    PM--|    PM--|    PM--|    PM--|    PM--|
e|---------------------------------------------------------------------------|
B|---------------------------------------------------------------------------|
G|---------------------------------------------------------------------------|
D|-10-------10-------10-------10-------10-------10-------10-------10---------|
A|-10-------10-------10-------10-------10-------10-------10-------10---------|
D|-10-10-10-10-10-10-10-10-10-10-10-10-10-10-10-10-10-10-10-10-10-10-10-10---|
 |
e|---------------------------------------------------------------------------|
B|-------------------------------------------------------------11\-----------|
G|-7-----------------8------------------7----------------8-------------------|
D|---------------------------------------------------------------------------|
A|---------------------------------------------------------------------------|
D|---------------------------------------------------------------------------|

    
e|-------------------------------------------------|
B|-------------------------------------------------|
G|-------------------------------------------------|
D|-6-----6-----6-----6-----6-----6-----6-----6\----|
A|-6-----6-----6-----6-----6-----6-----6-----6\----|
D|-6-6-6-6-6-6-6-6-6-6-6-6-6-6-6-6-6-6-6-6-6-6\----|
 |
e|-------------------------------------------------|
B|-------------------------------------------------|
G|-7-----------8-----------10----------------------|
D|-------------------------------------------------|
A|-------------------------------------------------|
D|-------------------------------------------------|



e|---------------------------------------------------------------------------------------------------|
B|---------------------------------------------------------------------------------------------------|
G|-7-7-7-7-7--7-7-7-7-7--7-7-7-7-7--7-7-7-7-7--8-x-x-8-x-x-8-x-x-8-x-x---10-x-x-10-x-x-10-x-x-10-x-x-| X4
D|-7-7-7-7-7--7-7-7-7-7--7-7-7-7-7--7-7-7-7-7--8-x-x-8-x-x-8-x-x-8-x-x---10-x-x-10-x-x-10-x-x-10-x-x-|
A|-5-5-5-5-5--5-5-5-5-5--5-5-5-5-5--5-5-5-5-5--6-x-x-6-x-x-6-x-x-6-x-x---8--x-x-8--x-x-8--x-x-8--x-x-|
D|---------------------------------------------------------------------------------------------------|
 |
e|---------------------------------------------------------------------------------------------------|
B|---------------------------------------------------------------------------------------------------|
G|-7-7-7-7-7--7-7-7-7-7--7-7-7-7-7--7-7-7-7-7--8-x-x-8-x-x-8-x-x-8-x-x---10-x-x-10-x-x-10-x-x-10-x-x-| X4
D|-7-7-7-7-7--7-7-7-7-7--7-7-7-7-7--7-7-7-7-7--8-x-x-8-x-x-8-x-x-8-x-x---10-x-x-10-x-x-10-x-x-10-x-x-|
A|-5-5-5-5-5--5-5-5-5-5--5-5-5-5-5--5-5-5-5-5--6-x-x-6-x-x-6-x-x-6-x-x---8--x-x-8--x-x-8--x-x-8--x-x-|
D|---------------------------------------------------------------------------------------------------|
 

e|---------------------------------------------------------------------------|
B|---------------------------------------------------------------------------|
G|---------------------------------------------------------------------------| X4
D|-7--x-x-7-7--x-x-7-7--x-x-7-7--x-x-7-8--x-x-7-7--x-x-7-6--x-x-6--6-7-6-----|
A|-5--x-x-5-5--x-x-5-5--x-x-5-5--x-x-5-7--x-x-8-8--x-x-8-7--x-x-7--7-8-7-----|
D|---------------------------------------------------------------------------|
 |
e|---------------------------------------------------------------------------|
B|---------------------------------------------------------------------------|
G|---------------------------------------------------------------------------| X4
D|-7--x-x-7-7--x-x-7-7--x-x-7-7--x-x-7-8--x-x-7-7--x-x-7-6--x-x-6--6-7-6-----|
A|-5--x-x-5-5--x-x-5-5--x-x-5-5--x-x-5-7--x-x-8-8--x-x-8-7--x-x-7--7-8-7-----|
D|---------------------------------------------------------------------------|


e|--------------------------------|
B|--------------------------------|
G|--------------------------------| X4
D|-7---5-7----5----7--5-7----5----|
A|-5---3-5----3----5--3-5----3----|
D|--------------------------------|
 |
e|--------------------------------|
B|--------------------------------|
G|--------------------------------| X4
D|-7---5-7----5----7--5-7----5----|
A|-5---3-5----3----5--3-5----3----|
D|--------------------------------|


  PM-|   PM-|  PM-|  PM-|  PM-|  PM-|  PM-|  PM-|  PM-|  PM
e|------------------------------------------------------------------|
B|------------------------------------------------------------------|
G|------------------------------------------------------------------|  X2
D|-----5-----5-----5-----5--------------5-----5-----5-----5----3p2--|
A|---1-----1-----1-----1--------3-----5-----5-----5-----5-----------|
D|-1-----1-----1-----1--------3-----5-----5-----5-----5-----5-------|
 |
 |pm..............................................................
e|------------------------------------------------------------------|
B|------------------------------------------------------------------|
G|------------------------------------------------------------------|
D|-1-1-1-1--1-1-1-1--1-1-1-1--3-3--5-5-5-5--5-5-5-5--5-5-5-5--8-8---|
A|-1-1-1-1--1-1-1-1--1-1-1-1--3-3--5-5-5-5--5-5-5-5--5-5-5-5--8-8---|
D|-1-1-1-1--1-1-1-1--1-1-1-1--3-3--5-5-5-5--5-5-5-5--5-5-5-5--8-8---|


            PM--|          PM---|         PM--|           PM---|
e|-----------------------------------------------------------------|
B|-----------------------------------------------------------------|
G|-----------------------------------------------------------------|
D|-1----3p2-------1----3p2-------1----3p2-------1----3p2-----------|
A|-1--------1-1-1-1--------1-1-1-1--------1-1-1-1---------1-1-1----|
D|-1--------1-1-1-1--------1-1-1-1--------1-1-1-1---------1-1-1----|
 |
 |           PM--|          PM---|         PM--|          PM---|
e|-----------------------------------------------------------------|
B|-----------------------------------------------------------------|
G|-----------------------------------------------------------------|
D|-1----3p2-------1----3p2-------1----3p2-------1----3p2-----------|
A|-1--------1-1-1-1--------1-1-1-1--------1-1-1-1---------1-1-1----|
D|-1--------1-1-1-1--------1-1-1-1--------1-1-1-1---------1-1-1----|



e|--------------------------------------------------------------|
B|--------------------------------------------------------------|
G|---------5---------------------------------------------5-7----|
D|-5---------8-7-5---------------------------------5-7-8--------|
A|-5---------------8-6-5-3---------3-------5--------------------|
D|-5-----------------------5------------------------------------|
 |
e|---------------------------------------------------------------|
B|---------------------------------------------------------------|
G|---------------------------------------------------------------|
D|-5--x-x--5--x-x--5--x-x--5--x-x--5--x-x--5--x-x--5--x-x--5\----|
A|-5--x-x--5--x-x--5--x-x--5--x-x--5--x-x--5--x-x--5--x-x--5\----|
D|-5--x-x--5--x-x--5--x-x--5--x-x--5--x-x--5--x-x--5--x-x--5\----|

            PM--|          PM---|         PM--|           PM---|
e|------------------------------------------------------------------------|
B|------------------------------------------------------------------------|
G|------------------------------------------------------------------------|
D|-1----3p2-------1----3p2-------1----3p2-------1----3p2------------------|
A|-1--------1-1-1-1--------1-1-1-1--------1-1-1-1---------1-1-1-----------|
D|-1--------1-1-1-1--------1-1-1-1--------1-1-1-1---------1-1-1-----------|
 |
 |          PM--|          PM--|          PM--|           PM--|
e|------------------------------------------------------------------------|
B|------------------------------------------------------------------------|
G|------------------------------------------------------------------------|
D|-1----3p2-------1----3p2-------1----3p2-------1----3p2------------------|
A|-1--------1-1-1-1--------1-1-1-1--------1-1-1-1---------1-1-1-----------|
D|-1--------1-1-1-1--------1-1-1-1--------1-1-1-1---------1-1-1-----------|


e|--------------------------------------------------------------|
B|--------------------------------------------------------------|
G|---------5---------------------------------------------5-7----|
D|-5---------8-7-5---------------------------------5-7-8--------|
A|-5---------------8-6-5-3---------3-------5--------------------|
D|-5-----------------------5------------------------------------|
 |
e|--------------------------------------------------------------|
B|--------------------------------------------------------------|
G|--------------------------------------------------------------|
D|-5--x-x--5--x-x--5--x-x--5--x-x--5--x-x--5--x-x--5--x-x--5\---|
A|-5--x-x--5--x-x--5--x-x--5--x-x--5--x-x--5--x-x--5--x-x--5\---|
D|-5--x-x--5--x-x--5--x-x--5--x-x--5--x-x--5--x-x--5--x-x--5\---|


e|----------------------------------------------------------||
B|----------------------------------------------------------||
G|----------------------------------------------------------|| 
D|-5---3-5----3----5--3-5----3---5---3-5----3----5--3-5\----||
A|-5---3-5----3----5--3-5----3---5---3-5----3----5--3-5\----||
D|-5---3-5----3----5--3-5----3---5---3-5----3----5--3-5\----||
 |
e|----------------------------------------------------------||
B|----------------------------------------------------------||
G|----------------------------------------------------------|| 
D|-5---3-5----3----5--3-5----3---5---3-5----3----5--3-5\----||
A|-5---3-5----3----5--3-5----3---5---3-5----3----5--3-5\----||
D|-5---3-5----3----5--3-5----3---5---3-5----3----5--3-5\----||




************************************

| /   slide up
| \   slide down
| h   hammer-on
| p   pull-off
| ~   vibrato
| +   harmonic
| x   Mute note
| b   Bend
| pb  Pre-bend
| br  Bend release
| pbr Pre-bend release
| brb Bend release bend

************************************

            
            
Suggest correction
Creating personal tab
Creating personal tab
You can edit any tab online and save it as your Personal.

You can edit, replace or remove any tab part or add personal notes – all changes will be seen only by you.

Personal tabs can be accessed anytime from any device, even offline.
Learn more »
Give kudos to tab author, rate the tab!
1 2 3 4 5
comments
print report bad tab
guest
You may want to rate the tab now too:
select rating
Wanna post a correction for this tab? Suggest correction