Oops, an error
Loading. Please wait.

River City Ransom Tab

554 views 6 this week
2 commentsread comments
1 2 3 4 5
excellent!
x 2
add to favorites
launch autoscroll
font size
0
reset
how to read this tab
guitar tuner
Tab Pro tools
  • play this tab
  • loop segment
  • change instrument
  • show fretboard
  • metronome
Autoscroll
slow
fast
+/-
esc
set tempo
stop
Contributor
Difficulty
Tuning
intermediate
D A D G B E
-------------------------------------------------------------------------------
                           River City Ransom - Ever We Fall - Endura
                                 http://www.everwefall.com/
-------------------------------------------------------------------------------
Tabbed by: Sebastien Z
Email: darkcoder8@gmail.com

Tuning: Drop D : DADGBe

I tabbed this out just for one guitar because thats
really all thats needed for this song other than at a few parts
where the other part is given.

Wait for drum intro to finish then start in:
Intro x4
e|-------------------------------------------------------15------------------15--|
B|-------------------------------------------------11-12---------------11-12-----|
G|---5-5-5-5-5-5-5\-12-12-12-12-12\-9-9------------------------------------------|
D|---X-X-X-X-X-X-X\-X--X--X--X--X-\-X-X---0-0--0------------0-0--0-0-0-----------|
A|---3-3-3-3-3-3-3\-10-10-10-10-10\-7-7---0-0--0------------0-0--0-0-0-----------|
D|----------------------------------------0-0--0------------0-0--0-0-0-----------|
                                          . .  .            . .  . . .
Bridge x2
e|---------------------------------------------------------------------------|
B|-----7-9---7-9-------------------------------------------------------------|
G|---7-----5---------------------7-7-7-7--------------17-17-17-17------------|
D|---------------7h8p7---0-0--0--X-X-X-X--0-0--0-0-0--X--X--X--X-------------|
A|-----------------------0-0--0--5-5-5-5--0-0--0-0-0--15-15-15-15------------|
D|-----------------------0-0--0-----------0-0--0-0-0-------------------------|
                         . .  .           . .  . . .
(continued)
e|-------------5-5h6p5---------------------------------------------|
B|-----7-9---7-----------------------------------------------------|
G|---7-----5---------------------7-7-7-7--------------17-17-17-17--|
D|-----------------------0-0--0--X-X-X-X--0-0--0-0-0--X--X--X--X---|
A|-----------------------0-0--0--5-5-5-5--0-0--0-0-0--15-15-15-15--|
D|-----------------------0-0--0-----------0-0--0-0-0---------------|
                         . .  .           . .  . . .
Verse 1 x4                                        Verse 2
e|-----------------------------------------|----------------------|--Only-on-2nd-time--|
B|-----------------------------------------|----------------------|--------------------|
G|--5--5-5--5-5\---------------------------|--12------12-------12-|-\14----------------|
D|--3--3-3--3-3\-12-12-12-12-12\-10-10--10-|----10-10----10-10----|--------------------|
A|--3--3-3--3-3\-10-10-10-10-10\-8--8---8--|----------------------|--------------------|
D|--3--3-3--3-3\-10-10-10-10-10\-8--8---8--|----------------------|--------------------|
                                               .  .     .  .
Verse 3 x4 (An effect might be used here, not positive)
e|-----------------3---------------------|--Guitar-2------------------------|
B|-----1---2h1---1---1---2h1---1---------|----------------------------------|
G|-1-1---1-----1-------1-----1-----------|----------------------------------|
D|---------------------------------------|--0-0-0-0-0-0-----3-3-3-3-3-3--3--|
A|---------------------------------------|--0-0-0-0-0-0-etc-3-3-3-3-3-3--3--|
D|---------------------------------------|--0-0-0-0-0-0-----3-3-3-3-3-3--3--|
                                            . . . . . .

Verse 1 x4
Intro x2
Bridge x2
Verse 1 & 2 x4
Verse 1 x4

Verse 4 - Guitar 1 -
Keep strumming this until 3:06
e|----------------------|
B|--2--5-5--5--5-5-5-5--|
G|--2--3-3--5--5-5-5-5--|
D|--0--3-3--3--3-3-3-3--|
A|----------------------|
D|----------------------|

Verse 4 - Guitar 2 -
Keep strumming this until 3:06
e|----------------------|
B|----------------------|
G|--12-12-12--12-12-12--|
D|--X--X--X---X--X--X---|
A|--10-10-10--10-10-10--|
D|----------------------|

Verse 5 x2
e|------------------------------------|-------------------------------15~--|
B|------------------13-13-------------|------------------13-13-------------|
G|--------9-9-------------12-12-------|---------9-9------------12-12-------|
D|------------10~----------------12~--|-------------10~--------------------|
A|--10-10-----------------------------|---10-10----------------------------|
D|------------------------------------|------------------------------------|

Intro x4
Bridge

Pre-Outro
e|--------------------------------------------------------------|
B|--------------------------------------------------------------|
G|-----9~-----------------9------10h9----9--12-------10h9----9--|
D|--0~-----3-3-3-3-3-3-5----10-10-----10-------10-10------10----|
A|--0~-----3-3-3-3-3-3-5----------------------------------------|
D|--0~-----3-3-3-3-3-3-5----------------------------------------|
                            .   .      .        .  .     .
Piano Outro
e|---------------------------------------------------15~------|
B|-------------------13-----------------------13--------------|
G|--------12-----9~-----12---------12-----9~-----12-----------|
D|-----10----10------------12~--------10----------------------|
A|--10--------------------------10----------------------------|
D|--------------------------------------------------------0~--|

If youre feeling adventurous you can try to do both guitar parts
for Verse 4. If I did anything glaringly wrong please let me know
and any other comments would be appreciated. You can IM me on
AIM if you want too: timestandstill88
Oh and..ever we fall's amazing obviously.

| /  slide up
| \  slide down
| h  hammer-on
| p  pull-off
| ~  let ring
| *  harmonic
| .  Palm mute
| b  Bend string
| x  Mute note

===============================================================================
comments
We did not receive enough feedback on this tab! Please rate:
print report bad tab
1 2 3 4 5
2 comments total.
0 reply
todayFOREVER wrote on August 27 2006, 07:24 pm

good job!

0 reply
flaccid james wrote on November 10 2006, 05:11 pm

right on

I want to post or [tab]
guest
You may want to rate the tab now too:
select rating
Please do not post tabs as comments. Select "correction" instead!