Oops, an error
Loading. Please wait.

1975 Bass Tab

616 views 1 this week
1 commentread comment
1 2 3 4 5
please rate
add to favorites
launch autoscroll
font size
0
reset
guitar tuner
Autoscroll
slow
fast
+/-
esc
set tempo
stop
Help us to improve Ultimate-Guitar.com Take our survey!
×
Author
-------------------------------|
-------------------------------|
-------------------------------|
-0-0-0-0-0-0-0-0-0-0-----------|

-------------------------------|
-------------------------------|
-------------------------------|
-7-7-7-7-5-5-5-5-0-0-0-0-------|
brawlin scratches mean a bad hair day..


-------------------------------|
-------------------------------|
-------------------------------|
-6-6-6-6-5-5-5-5-0-0-0-0-------|
time....yea almost everytime
im not alive...1975


-----------------------------------|
-----------------------------------|
-----------------------------------|
-6-6-6-6-5-5-5-5-3-3-3-3-8-8-8-8---|
dull damaged and blind, sounds alot like me


-------------------------------|
-------------------------------|
-------------------------------|
--0-0~~-----0-0~~--------------|
watch and wonder as they fade away...
Suggest correction
Give kudos to tab author, rate the tab!
1 2 3 4 5
comments
print report bad tab
1 comment total.
0 reply
cooljew 153 wrote on October 29 2006, 06:07 pm

haha i'm learning how to play wills tab

guest
You may want to rate the tab now too:
select rating
Please do not post tabs as comments. Select "correction" instead!