Oops, an error
Loading. Please wait.

All Fucked Up Tab

version 1
version 1

Whole song

Interactive

693 views 1 this week
no commentswrite comment
1 2 3 4 5
please rate
add to favorites
launch autoscroll
font size
0
reset
how to read this tab
guitar tuner
Tab Pro tools
  • play this tab
  • loop segment
  • change instrument
  • show fretboard
  • metronome
×
Best way to learn
"All Fucked Up"
Autoscroll
slow
fast
+/-
esc
set tempo
stop
Contributor
Everclear
"All Fucked Up"
Songs From An American Movie Volume 2:
Good Time For A Bad Attitude
Words By Art Alexakis
Music By Everclear

e|--------------------------------------------------------------|
B|--------------------------------------------------------------|
G|-8-8-8/10-10-10/12-12-12-12----8-8-8/10-10-10/12-12-12/13\12--|
D|--------------------------------------------------------------|
A|-6-6-6/8--8--8-/10-10-10-10----6-6-6/8--8--8-/10-10-10/11\10--|
E|--------------------------------------------------------------|

e|----------------------------------------------------|
B|----------------------------------------------------|
G|-8-8-8/10-10-10/12-12-12-12----6-6-6/8-8-8\5-5-5-5--|
D|----------------------------------------------------|
A|-6-6-6/8--8--8-/10-10-10-10----4-4-4/6-6-6\3-3-3-3--|
E|----------------------------------------------------|
   
   D#
e|---------------------------------------------------------------|
B|o--------------------------------------------------------------|
G|--8-8-8/10-10-10/12-12-12-12----8-8-8/10-10-10/12-12-12/13\12--|
D|---------------------------------------------------------------|
A|o-6-6-6/8--8--8-/10-10-10-10----6-6-6/8--8--8-/10-10-10/11\10--|
E|---------------------------------------------------------------|
 |                                                               |
e|---------------------------------------------------------------|
B|o-8-----------------------------8------------------------------|
G|--8-----------------------------8------------------------------|
D|--8-----------------------------8------------------------------|
A|o-6-----------------------------6------------------------------|
E|---------------------------------------------------------------|

   D#                            C#   D#     F
e|----------------------------------------------------| x3 (together 
B|---------------------------------------------------o| with above riff)
G|-8-8-8/10-10-10/12-12-12-12----6-6-6/8-8-8\5-5-5-5--|
D|----------------------------------------------------|
A|-6-6-6/8--8--8-/10-10-10-10----4-4-4/6-6-6\3-3-3-3-o|
E|----------------------------------------------------|
 |                                                    |
e|----------------------------------------------------|
B|-8-----------------------------6-6---8-8---5-5-5-5-o|
G|-8-----------------------------6-6---8-8---5-5-5-5--|
D|-8-----------------------------6-6---8-8---5-5-5-5--|
A|-6-----------------------------4-4---6-6---3-3-3-3-o|
E|----------------------------------------------------|
						No, it ain't easy.
						No, it ain't easy.
						No, it ain't easy, now

   D#m F#  B   C#  D#m F#  B   C#  D#m F#  B   C   Bb      G#
e|-----------------------------------------------------------------|
B|-7-7-----4-4-6-6-7-7-----4-4-6-6-7-7-----4-4-6-6-3-3-3-3---------|
G|-8-8-3-3-4-4-6-6-8-8-3-3-4-4-6-6-8-8-3-3-4-4-6-6-3-3-3-3-5-x-----|
D|-8-8-4-4-4-4-6-6-8-8-4-4-4-4-6-6-8-8-4-4-4-4-6-6-3-3-3-3-6-x-----|
A|-6-6-4-4-2-2-4-4-6-6-4-4-2-2-4-4-6-6-4-4-2-2-4-4-1-1-1-1-6-x-----|
E|-----2-2-------------2-2-------------2-2-----------------4-x-----|
pm..   .   .   .       .   .   .       .   .   .
         "hahaha," "hey, what the fuck are you laughing at..."
                                    "Get outta the way"  "1 2 3 4 1 2 3"

   D#m F#  B   C#  D#m F#  B   C#  D#m F#  B   C   Bb      G#
e|-----------------------------------------------------------------| x4
B|-7-7-----4-4-6-6-7-7-----4-4-6-6-7-7-----4-4-6-6-3-3-3-3---------|
G|-8-8-3-3-4-4-6-6-8-8-3-3-4-4-6-6-8-8-3-3-4-4-6-6-3-3-3-3-5-5-5-5-|
D|-8-8-4-4-4-4-6-6-8-8-4-4-4-4-6-6-8-8-4-4-4-4-6-6-3-3-3-3-6-6-6-6-|
A|-6-6-4-4-2-2-4-4-6-6-4-4-2-2-4-4-6-6-4-4-2-2-4-4-1-1-1-1-6-6-6-6-|
E|-----2-2-------------2-2-------------2-2-----------------4-4-4-4-|
(no lyrics first time)
Wooooooooooooooooahhhhhhhhhhhhhhhhhhhhhhhhhhhhhh 
I am all fucked up and I am ready to break. 
I don't wanna be the guy who is always on the outside. 
I wanna find my own good place. 
All fucked up and I don't know how. 
How I ever got to where I feel like I am dying on the inside. 
I want to be happy but I don't know how. 

   D#m   F#    B     C#    D#m   F#    B     C#  
e|-------------------------------------------------|
B|-7--7--------4--4--6--6--7--7--------4--4--6--6--|
G|-8--8--3--3--4--4--6--6--8--8--3--3--4--4--6--6--|
D|-8--8--4--4--4--4--6--6--8--8--4--4--4--4--6--6--|
A|-6--6--4--4--2--2--4--4--6--6--4--4--2--2--4--4--|
E|-------2--2--------------------2--2--------------|
 |						   |
e|-------------------------------------------------|
B|-7--7--7--7--7--7--9--9--11-11-11-11-11-11-13-13-|
G|-------------------------------------------------|
D|-------------------------------------------------|
A|-------------------------------------------------|
E|-------------------------------------------------|

   D#m   F#    B     C#    Bb          G#
e|-------------------------------------------------|
B|-7--7--------4--4--6--6--3--3--3--3--------------|
G|-8--8--3--3--4--4--6--6--3--3--3--3--5--5--5--5--|
D|-8--8--4--4--4--4--6--6--3--3--3--3--6--6--6--6--|
A|-6--6--4--4--2--2--4--4--1--1--1--1--6--6--6--6--|
E|-------2--2--------------------------4--4--4--4--|
 |						   |
e|-------------------------------------------------|
B|-14-14-14-14-14-14-16-16-14-14-13-13-11-11-9--9--|
G|-------------------------------------------------|
D|-------------------------------------------------|
A|-------------------------------------------------|
E|-------------------------------------------------|

   D#m F#  B   C#  D#m F#  B   C#  D#m F#  B   C   Bb      G#
e|-----------------------------------------------------------------| x2
B|-7-7-----4-4-6-6-7-7-----4-4-6-6-7-7-----4-4-6-6-3-3-3-3---------|
G|-8-8-3-3-4-4-6-6-8-8-3-3-4-4-6-6-8-8-3-3-4-4-6-6-3-3-3-3-5-5-5-5-|
D|-8-8-4-4-4-4-6-6-8-8-4-4-4-4-6-6-8-8-4-4-4-4-6-6-3-3-3-3-6-6-6-6-|
A|-6-6-4-4-2-2-4-4-6-6-4-4-2-2-4-4-6-6-4-4-2-2-4-4-1-1-1-1-6-6-6-6-|
E|-----2-2-------------2-2-------------2-2-----------------4-4-4-4-|
 |                                                                 |
e|-----------------------------------------------------------------|
B|---8---8---8---8---8---8---8---8---8---8---8---8---8---8---8---8-|
G|-7---7---7---7---7---7---7---7---7---7---7---7---7---7---7---7---|
D|-----------------------------------------------------------------|
A|-----------------------------------------------------------------|
E|-----------------------------------------------------------------|
I am all fucked up and it's always the same. 
I always get so close, then I let it get away. 
I got no one but myself to blame. 
I'm all fucked up and I don't know why. 
If the rest of my life is going to be like this, think I would rather die. 

e|-------------------------------------------------| x3 (end with
B|-7--7--7--7--7--7--7--7--7--7--7--7--7--7--7--7--| a pick scrape 
G|-8--11-8--11-8--11-8--11-8--11-8--11-8--11-8--11-| the last time)
D|-------------------------------------------------|
A|-------------------------------------------------|
E|-------------------------------------------------|
I am all fucked up.
Yes, I am all fucked up. 
All fucked up. 
Yes, I am all fucked up. 

(Note: The riff below looks the same, but is played slower and with 
a different rhythm. Listen to the CD/Mp3/Tape whatever)

   D#m   F#    B     C#    D#m   F#    B     C#  
e|-------------------------------------------------|
B|-7--7--------4--4--6--6--7--7--------4--4--6--6--|
G|-8--8--3--3--4--4--6--6--8--8--3--3--4--4--6--6--|
D|-8--8--4--4--4--4--6--6--8--8--4--4--4--4--6--6--|
A|-6--6--4--4--2--2--4--4--6--6--4--4--2--2--4--4--|
E|-------2--2--------------------2--2--------------|
 |						   |
e|-------------------------------------------------| 
B|-7--7--7--7--7--7--7--7--7--7--7--7--7--7--7--7--|
G|-8--11-8--11-8--11-8--11-8--11-8--11-8--11-8--11-|
D|-------------------------------------------------|
A|-------------------------------------------------|
E|-------------------------------------------------|

   D#m   F#    B     C#    Bb          G#
e|-------------------------------------------------| x2 (together with
B|-7--7--------4--4--6--6--3--3--3--3--------------| above riff)
G|-8--8--3--3--4--4--6--6--3--3--3--3--5--5--5--5--|
D|-8--8--4--4--4--4--6--6--3--3--3--3--6--6--6--6--|
A|-6--6--4--4--2--2--4--4--1--1--1--1--6--6--6--6--|
E|-------2--2--------------------------4--4--4--4--|
 |						   |
e|-------------------------------------------------| 
B|-7--7--7--7--7--7--7--7--7--7--7--7--7--7--7--7--| 
G|-8--11-8--11-8--11-8--11-8--11-8--11-8--11-8--11-|
D|-------------------------------------------------|
A|-------------------------------------------------|
E|-------------------------------------------------|
All fucked up

   D#m   B     C     G#    B     F#    Bb    G#
e|-------------------------------------------------| x2
B|-7--7--------5--5--------4--4--------3--3--------| 
G|-8--8--8--8--5--5--5--5--4--4--3--3--3--3--5--5--|
D|-8--8--9--9--5--5--6--6--4--4--4--4--3--3--6--6--|
A|-6--6--9--9--3--3--6--6--2--2--4--4--1--1--6--6--|
E|-------7--7--------4--4--------2--2--------4--4--|

   D#m   B     C     G#    B     F#    Bb    G#
e|-------------------------------------------------| x2
B|-7--7--------5--5--------4--4--------3--3--------| 
G|-8--8--8--8--5--5--5--5--4--4--3--3--3--3--5--5--|
D|-8--8--9--9--5--5--6--6--4--4--4--4--3--3--6--6--|
A|-6--6--9--9--3--3--6--6--2--2--4--4--1--1--6--6--|
E|-------7--7--------4--4--------2--2--------4--4--|
 |                                                 |
e|-11----11----11----11----11----11----11----11----|
B|----11----11----11----11----11----11----11----11-|
G|-------------------------------------------------|
D|-------------------------------------------------|
A|-------------------------------------------------|
E|-------------------------------------------------|

   D#m F#  B   C#  D#m F#  B   C#  D#m F#  B   C   Bb      G#
e|-----------------------------------------------------------------| x4
B|-7-7-----4-4-6-6-7-7-----4-4-6-6-7-7-----4-4-6-6-3-3-3-3---------|
G|-8-8-3-3-4-4-6-6-8-8-3-3-4-4-6-6-8-8-3-3-4-4-6-6-3-3-3-3-5-5-5-5-|
D|-8-8-4-4-4-4-6-6-8-8-4-4-4-4-6-6-8-8-4-4-4-4-6-6-3-3-3-3-6-6-6-6-|
A|-6-6-4-4-2-2-4-4-6-6-4-4-2-2-4-4-6-6-4-4-2-2-4-4-1-1-1-1-6-6-6-6-|
E|-----2-2-------------2-2-------------2-2-----------------4-4-4-4-|
 |                                                                 |
e|-----------------------------------------------------------------|
B|---8---8---8---8---8---8---8---8---8---8---8---8---8---8---8---8-|
G|-7---7---7---7---7---7---7---7---7---7---7---7---7---7---7---7---|
D|-----------------------------------------------------------------|
A|-----------------------------------------------------------------|
E|-----------------------------------------------------------------|
I am all fucked up
Yes, I am ready to break. 
I don't wanna be the guy who is always on the outside. 
I wanna find my own good place. 
All fucked up and I don't know how. 
How I ever got to where I feel like I'm dying on the inside. 
I want to be happy now. 
I am all fucked up and it is always the same. 
I always get so close then I let it get away. 
I got no one but myself to blame. 
I am all fucked up and I don't know why. 
If the rest of my life is going to be like this then I think I would rather die. 
(End on a D#m)
I am all fucked up.


comments
We did not receive enough feedback on this tab! Please rate:
print report bad tab
1 2 3 4 5
I want to post or [tab]
guest
You may want to rate the tab now too:
select rating
Please do not post tabs as comments. Select "correction" instead!