Oops, an error
Loading. Please wait.

Broken Tab

229 views 1 this week
no commentswrite comment
1 2 3 4 5
please rate
add to favorites
launch autoscroll
font size
0
reset
how to read this tab
guitar tuner
Autoscroll
slow
fast
+/-
esc
set tempo
stop
Help us to improve Ultimate-Guitar.com Take our survey!
×
Author
#----------------------------------PLEASE NOTE--------------------------------#
#This file is the author's own work and represents their interpretation of the#
#song. You may only use this file for private study, scholarship, or research.#
#-----------------------------------------------------------------------------#
#-- File created with Instab - http://www.pconline.com/~smcarey/instab.html --#
#-----------------------------------------------------------------------------#

Author/Artist: Everclear
Title: Broken



Tuning (eb A D G B E), (eb, D) Down ~ 10%
Key: (E + D) -> (E + A) or (D + C#)


----|------------------|--|
----|------------------|--|
----|-3---5---5----0---|--|
----|-3---3---3----3---|--|
----|------------------|--|
----|------------------|--|
    

  Intro 



----|--------------1------------1---|--|
----|--------------1--1------1--1---|--|
----|-----------------0------0------|--|
----|------------3---------3--------|--|
----|----------1---------3----------|--|
----|-4--5--6-----------------------|--|
          

  Verse   



----|----------------------------------------|
----|----------------6---------6----------6--|
----|--------------5----5--------5------5----|
----|------------8-----------5--------5------|
----|----------8-----------6--------3--------|
----|-4--5--6--------------------------------|
         

  Verse Out



----|----------|--|
----|----------|--|
----|-10--10---|--|
----|-10--10---|--|
----|-10--8----|--|
----|----------|--|
  

  Chorus "...Love" 


Suggest correction
What's this?
You can suggest a correction to this tab. Community and Mods will review your correction and vote to approve or reject it.
comments
We did not receive enough feedback on this tab! Please rate:
print report bad tab
1 2 3 4 5
guest
You may want to rate the tab now too:
select rating
Please do not post tabs as comments. Select "correction" instead!