Oops, an error
Loading. Please wait.

Halloween Americana Tab

version 1
version 1

Intro

Whole song

Interactive

476 views 1 this week
no commentswrite comment
1 2 3 4 5
excellent!
x 1
add to favorites
launch autoscroll
font size
0
reset
how to read this tab
guitar tuner
Tab Pro tools
  • play this tab
  • loop segment
  • change instrument
  • show fretboard
  • metronome
Autoscroll
slow
fast
+/-
esc
set tempo
stop
Contributor
Everclear
"Halloween Americana"
Songs From An American Movie Vol 2: Good Time For A  Bad Attitude
Music By Everclear

Intro:    
Eb|---------------------------------------------------------|
Bb|---------------------------------------------------------|
Gb|-----7-7-7-------9-9-9-----------------------------------|
Db|-----7-7-7-------9-9-9-----------------------------------|
Ab|-----5-5-5-------7-7-7-----------------------------------|
Eb|---------------------------------------------------------|

Verse:
Eb|----------------------------------------------------------------|
Bb|----------------------------------------------------------------|
Gb|-----7-7-7--9-9-9---------5-5-5----------4-4-4------------------|
Db|-----7-7-7--9-9-9---7-7---5-5-5---5-5----4-4-4---5-5-5---7-7-7--|
Ab|-----5-5-5--7-7-7---7-7---3-3-3---5-5----2-2-2---5-5-5---7-7-7--|
Eb|--------------------5-5-----------3-3------------3-3-3---5-5-5--|

Eb|---------------------------------------------------------|
Bb|---------------------------------------------------------|
Gb|-----7-7-7-------9-9-9-----------------------------------|
Db|-----7-7-7-------9-9-9-----------------------------------|
Ab|-----5-5-5-------7-7-7-----------------------------------|
Eb|---------------------------------------------------------|

Guitar Fill:  1                    Guitar Fill: 2
Eb|---------------------------------------12--------------|
Bb|------------------------------------------12-----------|
Gb|-----------9-----7---REPEAT----------------------------|
Db|---------9---------------------------------------------|
Ab|---5-/-7-----------------------------------------------|
Eb|-------------------------------------------------------|

Eb|---12----12--14--14^15--14--12-------------------------|
Bb|------12-----------------------12----------------------|
Gb|-----------------------------------REPEAT--------------|
Db|-------------------------------------------------------|
Ab|-------------------------------------------------------|
Eb|-------------------------------------------------------|

Play Guitar Fill 1 a few times then play this
Pre-Solo:
Eb|------------------------------------------------------|
Bb|------------------------------------------------------|
Gb|----------9----------9----------9---------9-----------|
Db|--------9----------9----------9---------9-------------|
Ab|--7-/-9------7-/-9------7-/-9-----7-/-9---------------|
Eb|------------------------------------------------------|

Solo:  This is a killer solo. Art Alexakis ROCKS.
Eb|----------------------------------------------------------|
Bb|----------------------------------------------------------|
Gb|----------------12h14--12h14--12-14--14^-14^-------12h14--|
Db|---------12--14------------------------------12h14--------|
Ab|--12--14--------------------------------------------------|
Eb|----------------------------------------------------------|

Eb|----------------------------------------------------|
Bb|----------------------------------------------------|
Gb|--14^-14^--------12h14---14^-14^--12h14p12---11-----|
Db|-----------12h14------------------------------------|
Ab|----------------------------------------------------|
Eb|----------------------------------------------------|

Eb|----------------------------------------------------------|
Bb|---/14--14^--12h14--12h14--14^-14^--12h14-12h14--14^--14^-|
Gb|----------------------------------------------------------|
Db|----------------------------------------------------------|
Ab|----------------------------------------------------------|
Eb|----------------------------------------------------------|

Eb|-------------------------------------------------------|
Bb|---12h14--12h14--14^-14^-------------------------------|
Gb|-------------------------14--12----12--------12--14----|
Db|--------------------------------14----12--14-----------|
Ab|-------------------------------------------------------|
Eb|-------------------------------------------------------|

Eb|--/12-/14/15-------15h17--17^-17^-------15h17-17^-17^--|
Bb|-------------15h17----------------15h17----------------|
Gb|-------------------------------------------------------|
Db|-------------------------------------------------------|
Ab|-------------------------------------------------------|
Eb|-------------------------------------------------------|

Eb|--------15h17-17^-17^---17-15--------12----------------|
Bb|---15h17----------------------17--15----15-------------|
Gb|-------------------------------------------------------|
Db|-------------------------------------------------------|
Ab|-------------------------------------------------------|
Eb|-------------------------------------------------------|

Eb|---15p14-14-14-\-12-12-12-12-\-10-/12--12-15-12--------|
Bb|-------------------------------------------------15-12-|
Gb|-------------------------------------------------------|
Db|-------------------------------------------------------|
Ab|-------------------------------------------------------|
Eb|-------------------------------------------------------|

Eb|---15p14-14-14-\-12-12-12-\-10-/12---12-15-12-----------------------|
Bb|----------------------------------------------15-12-15--------------|
Gb|-------------------------------------------------------14^----------|
Db|--------------------------------------------------------------------|
Ab|--------------------------------------------------------------------|
Eb|--------------------------------------------------------------------|

        4X:
Eb|----------------------------------------------------|
Bb|----------------------------------------------------|
Gb|---14^----------12h14--12h14--14^-------------------|
Db|----------12h14-------------------------------------|
Ab|----------------------------------------------------|
Eb|----------------------------------------------------|
   
   4x: together with above riff
Eb|---17^----------15h17--15h17--17^-------------------|
Bb|----------15h17-------------------------------------|
Gb|----------------------------------------------------|
Db|----------------------------------------------------|
Ab|----------------------------------------------------|
Eb|----------------------------------------------------|
 
   Then go back to this lick:
Eb|----12-----12---14--14^15-14--12--------------------|
Bb|-------12------------------------12-----------------|
Gb|----------------------------------------------------|
Db|----------------------------------------------------|
Ab|----------------------------------------------------|
Eb|----------------------------------------------------|
 
   Outro:
Eb|---2-----0----0-----0----0----2----0------------------|
Bb|---3-----0----0-----1----1----3----0------------------|
Gb|---2-----1----1-----0----0----2----1------------------|
Db|---0-----2----2-----2----2----0----2------------------|
Ab|---0-----2----2-----3----3---------2------------------|
Eb|---------0----0--------------------0------------------|

comments
We did not receive enough feedback on this tab! Please rate:
print report bad tab
1 2 3 4 5
I want to post or [tab]
guest
You may want to rate the tab now too:
select rating
Please do not post tabs as comments. Select "correction" instead!