Oops, an error
Loading. Please wait.

Heartspark Dollarsign Tab

version 1
version 1

Whole song

Interactive

2,257 views 6 this week
no commentswrite comment
1 2 3 4 5
please rate
add to favorites
launch autoscroll
font size
0
reset
how to read this tab
guitar tuner
Tab Pro tools
  • play this tab
  • loop segment
  • change instrument
  • show fretboard
  • metronome
Autoscroll
slow
fast
+/-
esc
set tempo
stop
Heartspark Dollarsign
By Everclear
Off the CD "Sparkle and Fade"
Tabbed by Chris Mickols (cmickols@hotmail.com)


Guitar:
Intro:
e|-----------------2-------------------2---------------------|
B|-----5------3----3-------5------3------3---------5-----3---|
G|-------0----0----0---------0----0--------0---------0---0---|
D|---0--------0----------0--------0--------------0-------0---|
A|-----------------------------------------------------------|
E|-5-------3-----------5-------3---------------5-------3-----|
 

Riff 1:
e|-------------3--3--3--3--------------0--0--0--0--------------
B|-------------0--0--0--0--------------1--1--1--1--------------
G|-2--4--2--0--0--0--0--0--2--4--2--0--0--0--0--0--2--4--2--0--
D|-0--0--0--0--0--0--0--0--0--0--0--0--2--2--2--2--0--0--0--0--
A|-------------2--2--2--2--------------3--3--3--3--------------
E|-------------3--3--3--3--------------0--0--0--0--------------
 
e|-3--3--3--3--------------0--0--0--0--------------|
B|-0--0--0--0--------------1--1--1--1--------------|
G|-0--0--0--0--2--4--2--0--0--0--0--0--2--4--2--0--|
D|-0--0--0--0--0--0--0--0--2--2--2--2--0--0--0--0--|
A|-2--2--2--2--------------3--3--3--3--------------|
E|-3--3--3--3--------------0--0--0--0--------------|
 


Riff 2:
e|-0--------0-------3--3--3--3--------------0--0--0--0--------------|
B|-3--------1-------0--0--0--0--------------1--1--1--1--------------|
G|-3--------0-------0--0--0--0--2--4--2--0--0--0--0--0--2--4--2--0--|
D|-3--------2-------0--0--0--0--0--0--0--0--2--2--2--2--0--0--0--0--|
A|-0--------3-------2--2--2--2--------------3--3--3--3--------------|
E|----------0-------3--3--3--3--------------0--0--0--0--------------| 
 

Riff 3:
e|-----------------------------------------------------|
B|-----------------------------------------------------|
G|-2--4--2--0----------2--4--2--0----------2--4--2--0--|
D|-0--0--0--0----------0--0--0--0----------0--0--0--0--|
A|-----------------------------------------------------|
E|-----------------------------------------------------|


Riff 4:
e|-0--0---0--0---0--0---0--0---3--3--3--3---0--0--0--0--
B|-3--3---0--0---3--3---0--0---0--0--0--0---1--1--1--1--
G|-3--3---1--1---3--3---1--1---0--0--0--0---0--0--0--0--
D|-3--3---2--2---3--3---2--2---0--0--0--0---2--2--2--2--
A|-0--0---2--2---0--0---2--2---2--2--2--2---3--3--3--3--
E|--------0--0----------0--0---3--3--3--3---0--0--0--0--
 
-3--3--3--3---0--0--0--0--|
-0--0--0--0---1--1--1--1--|
-0--0--0--0---0--0--0--0--|
-0--0--0--0---2--2--2--2--|
-2--2--2--2---3--3--3--3--|
-3--3--3--3---0--0--0--0--|
 
Solo:
e|---------------------------------------------12-15--------
B|-15-17)-15--12-15-12-15-12-\-\-\-/-/-/-12-15-------12-15--
G|----------------------------------------------------------
D|----------------------------------------------------------
A|----------------------------------------------------------
E|----------------------------------------------------------
 
-------------------12-15---------------------
----12-15----12-15-------12-15----12-15------
-12-------12-------------------12-------12---
---------------------------------------------
---------------------------------------------
---------------------------------------------
 
------------------------------------------------------------------|
-12-12-12-12-11-11-11-11-12-12-12-12-11-11-11-11--------------12--|
-12-12-12-12-12-12-12-12-12-12-12-12-12-12-12-12--14-16-14-12-12--|
------------------------------------------------------------------|
------------------------------------------------------------------|
------------------------------------------------------------------|
 

Bass:
Riff 1:
G|-------------------------------------|
D|-------------------------------------|
A|----------5-5-5-5--3-3-3-3--5-5-5-5--|
E|-3-3-3-3-----------------------------|


Riff 2:
G|-------------------------------------------------------|
D|-------------------------------------------------------|
A|----------3-3-3-3-----------5-5-5-5--3-3-3-3--5-5-5-5--|
E|-5-5-5-5----------3-3-3-3------------------------------|
 


Riff 3:
e|------------------------------------------------------|
B|------------------------------------------------------|
G|------------------------------------------------------|
D|------------------------------------------------------|
A|------------------------------3-3-3-3---------3-3-3-3-|
E|-5-5---0-0--5-5--0-0--3-3-3-3---------3-3-3-3---------|
 


 


Guitar Intro, Riff 1	Intro
Bass   None, Riff 1

Guitar Let ring		Time stops when the whispers blare
Bass   Riff 1		The voices drop hard, but the eyes still stare
			The world resolvs into a death's head grin

Guitar Riff 2		Because I walk with pride with a black girlfriend
Bass   Riff 2
		
Guitar Riff 3		My mom said not to brign her around
Bass   Riff 1		Cause she's black my family would put her down
			I'll break the  white-trash ties that bind

Guitar Riff 2		Trade a love so pure for a hate so blind
Bass   Riff 2

Guitar Riff 4		She said, she said
Bass   Riff 3		Forget the fact  that I don't look like you
			She said, she said
			You're possessed with a power bigger than the pain

Guitar Solo		Solo
Bass   Riff 1

Guitar Riff 3		Time stops when we lie so close
Bass   Riff 1		In my room where we share what no one knows
			From the day that we start
			Untill the day that we end

Gutar Riff 2		I know I know I know now
Bass  Riff 2		We will never find a place
			Where we could just fit in

Guitar Riff 1		Me and my black girlfriend
Bass   Riff 1

Guitar Riff 4		She said, she said
Bass   Riff 3		Fend for yourself, your alone
			She said, she said
			Your posessed with a power bigger than the pain

Guitar Riff 1		A power bigger than the pain
Bass   Riff 1		A power bigger than the pain
			A power bigger than the pain
			Heartspark Dollarsign
			Heartspark DollarsignIf you think I am missing parts to this song e-mail them to me:
cmickols@hotmail.com
comments
We did not receive enough feedback on this tab! Please rate:
print report bad tab
1 2 3 4 5
I want to post or [tab]
guest
You may want to rate the tab now too:
select rating
Please do not post tabs as comments. Select "correction" instead!