Oops, an error
Loading. Please wait.

I Will Buy You A New Life Tab

version 4
version 4

Whole song

Interactive

945 views 3 this week
no commentswrite comment
1 2 3 4 5
please rate
add to favorites
launch autoscroll
font size
0
reset
how to read this tab
guitar tuner
Autoscroll
slow
fast
+/-
esc
set tempo
stop
Help us to improve Ultimate-Guitar.com Take our survey!
×
Author
Difficulty
intermediate
I Will Buy You a New Life: Everclear
Key: Ab Major

C x  C# x  G# 4  Fm 1
  5     6     4     1
  5     6     5     1
  5     6     6     3
  3     4     6     3
  x     x     4     1


Intro(strum D U D DUDD) 
   e e e ssss h   e e e ssss h   e e e sss  h   e e e sss      
e|-----------|--------------|--------------|-------------|
b|-----------|--------------|--------------|-------------|
g|-----------|--------------|--------------|-------------|
d|-6-6-6-6666|----6-6-6-6666|----6-6-6-6666|----6-6-6-666|
a|-6-6-6-6666|----6-6-6-6666|----6-6-6-6666|----6-6-6-666|
e|-4-4-4-4444|----4-4-4-4444|----4-4-4-4444|----4-4-4-444|
                hmm            oh             yeah

  h  e ss e e e   
e|---------------|
b|---------------|
g|----5-6--------|
a|-------6-------|
d|-----------4-3-|
e|---------------|


  h   h    e e e  x3 then      e  ssssss     
e|----4---------|              e|-4-----------|
b|----4---------|              b|-4-------4---|
g|----5---------|              g|-5----5-5----|
a|----6---------|              a|-6---6-6-----|
d|----6----6-4-3|              d|-6--6--------|
e|--------------|              e|-------------|


  h   h    e e e  x3 then            e e e e e                           
e|----4---------|              e|----4-4-4-4-4--------|
b|----4---------|              b|----4-4-4-4-4--------|               
g|----5---------|              g|----5-5-5-5-5--------|                      
a|----6---------|              a|----6-6-6-6-6--------|            
d|----6----6-4-3|              d|----6-6-6-6-6--------|
e|--------------|              e|----4-4-4-4-4--------|

   e e e ssss h   e e e ssss h   e e e ssss h   e e e ssss h
e|-----------|--------------|--------------|--------------|-------------|
b|-----------|--------------|--------------|--------------|-------------|
g|-----------|--------------|--------------|--------------|-------------|
d|-6-6-6-6666|----6-6-6-6666|----6-6-6-6666|----6-6-6-6666|----6-6-6-666|
a|-6-6-6-6666|----6-6-6-6666|----6-6-6-6666|----6-6-6-6666|----6-6-6-666|
e|-4-4-4-4444|----4-4-4-4444|----4-4-4-4444|----4-4-4-4444|----4-4-4-444|
                yeah           i know we will...           yeah 

   e e e e
e|----------------|
b|-------6--------|
g|-------6--------|
a|---4-6-6--------|
d|-4-----4--------|
e|----------------|


Then Play Chords:
Chorus:
 G#        C       
You say you wake up crying

G#         C
Yes and you don’t know why

G#         C
You get up and you go lay down

G#         C
Inside my baby's room
*riff
e|----------------|
b|-4-6-4-6--------|
g|---------6-5----|
a|----------------|
d|----------------|
e|----------------|

Verse:

G#            C
Yeah, I guess I'm doing ok
G#         C
I moved in with the strangest guy
G#                            C
Can you believe he actually thinks

That I am really alive?

G#      C           Fm
I will buy you a garden
             C#
Where your flowers can bloom
G#      C            Fm
I will buy you a new car
         C#
Perfect shiny and new
G#      C               Fm
I will buy you that big house
       C#
Way up in the west hills
G#      C             C#
I will buy you a new life
C#
Yes I will 
e|--4/-------|
b|--4/-------|
g|--5/-------|
a|--6/-------|
d|--6/-------|
e|--4/-------|
G#               C
Yes, I know all about that other guy

G#              C
The handsome man with athletic thighs

G#                   C
I know about all the time before

C#                 Fm
With that obsessive little rich boy

*riff
e|----------------|
b|-4-6-4-6--------|
g|---------6-5----|
a|----------------|
d|----------------|
e|----------------|

G#                   C
They might make you think you're happy

G#               C
Yeah maybe for a minute or two

G#         C
They can't make you laugh

C#                     Fm
No they can't make you feel the way that I do

Chorus:
I will buy you a garden

Where your flowers can bloom

I will buy you a new car

Perfect shiny and new

I will buy you that big house

Way up in the west hills

I will buy you a new life
yeah
I will buy you a new life
yeah


Then play the Intro:

 e e e ssss h   e e e ssss h   e e e sss  h   e e e sss      
e|-----------|--------------|--------------|-------------|
b|-----------|--------------|--------------|-------------|
g|-----------|--------------|--------------|-------------|
d|-6-6-6-6666|----6-6-6-6666|----6-6-6-6666|----6-6-6-666|
a|-6-6-6-6666|----6-6-6-6666|----6-6-6-6666|----6-6-6-666|
e|-4-4-4-4444|----4-4-4-4444|----4-4-4-4444|----4-4-4-444|
 
Outro same as Chorus.

Thats all :) 
Tabbed by luchboxer
Suggest correction
Give kudos to tab author, rate the tab!
1 2 3 4 5
comments
print report bad tab
guest
You may want to rate the tab now too:
select rating
Please do not post tabs as comments. Select "correction" instead!