Oops, an error
Loading. Please wait.

Invisible Tab

version 2
version 2

Whole song

92 views 1 this week
no commentswrite comment
1 2 3 4 5
please rate
add to favorites
launch autoscroll
font size
0
reset
how to read this tab
guitar tuner
Tab Pro tools
  • play this tab
  • loop segment
  • change instrument
  • show fretboard
  • metronome
×
Best way to learn
"Invisible"
Autoscroll
slow
fast
+/-
esc
set tempo
stop
Contributor
Difficulty
advanced
 |GUITAR                                         |
e|-----------------------------------------------|
B|-----------------------------------------------|
G|-----------------------9-9-9-9-9-9-9-9-9-9-9-9-|
D|-------------------------(tremelo pick this----|
A|--------------------------------note)----------|
E|-----------------------------------------------|

     A       A Bb B   A       A Bb B
e|------------------------5------------|
B|------------------------5------------|
G|------------------------6------------|
D|--/7-7-7---/7-8-9--/7-7-7---/7-8-9---|
A|--/7-7-7---/7-8-9--/7-7-7---/7-8-9---|
E|-2/5-5-5-2/5-6-72/5-5-5-2/5-6-7------|

     A       A Bb B   A       A Bb B
e|--------------------------------------|
B|--------------------------------------|
G|--------------------------------------|
D|--/7-7-7---/7-8-9--/7-7-7---/7-8-9----|
A|--/7-7-7---/7-8-9--/7-7-7---/7-8-9----|
E|-2/5-5-5-2/5-6-72/5-5-5-2/5-6-7-------|
 |                                    |
e|------------------------------------|
B|---------------------------12-12-12-|
G|------------------------------------|
D|------------------------------------|
A|------------------------------------|
E|------------------------------------|

     A       A Bb B   A       A Bb B
e|---------------------------------------|
B|---------------------------------------|
G|---------------------------------------|
D|--/7-7-7---/7-8-9--/7-7-7---/7-8-9-----|
A|--/7-7-7---/7-8-9--/7-7-7---/7-8-9-----|
E|-2/5-5-5-2/5-6-72/5-5-5-2/5-6-7--------|
 |                                     |
e|-------------------------------------|
B|12-12-12-11-11-11-----------------12-|
G|-------------------9-9-9h11-11-11----|
D|-------------------------------------|
A|-------------------------------------|
E|-------------------------------------|

     A       A Bb B   A       A Bb B
e|---------------------------------------|
B|---------------------------------------|
G|---------------------------------------|
D|--/7-7-7---/7-8-9--/7-7-7---/7-8-9-----|
A|--/7-7-7---/7-8-9--/7-7-7---/7-8-9-----|
E|-2/5-5-5-2/5-6-72/5-5-5-2/5-6-7--------|
 |                                     |
e|-------------------------------------|
B|-12-12h14p11-11-11-------------------|
G|-------------------9-11-9-8-9-8--6~--|
D|-------------------------------------|
A|-------------------------------------|
E|-------------------------------------|

     A       A Bb B   A       A Bb B
e|----------------------------------------| x4
B|----------------------------------------|
G|----------------------------------------|
D|--/7-7-7---/7-8-9--/7-7-7---/7-8-9------|
A|--/7-7-7---/7-8-9--/7-7-7---/7-8-9------|
E|-2/5-5-5-2/5-6-72/5-5-5-2/5-6-7---------|
I will live. I will live.
Maybe for a year or two. Maybe for a year.
I will die.  Yes I will die.
I can rest secure in that.

   E               D       E
e|-0---------------5-------0--------------------------------------------|x2
B|-0---------------7-------0--------------------------------------------|
G|-1---------------7-------1--------------------------------------------|
D|-2---------------7-------2---------/7-7-7---/7-8-9--/7-7-7---/7-8-9---|
A|-2---------------5-------2---------/7-7-7---/7-8-9--/7-7-7---/7-8-9---|
E|-0-----------------------0--------2/5-5-5-2/5-6-72/5-5-5-2/5-6-7------|
Yeah, I am awful sure that this thing ain't no accident.
I just can't believe that AIDS is just some act of God.

     A       A Bb B   A       A Bb B
e|----------------------------------------| x2
B|----------------------------------------|
G|----------------------------------------|
D|--/7-7-7---/7-8-9--/7-7-7---/7-8-9------|
A|--/7-7-7---/7-8-9--/7-7-7---/7-8-9------|
E|-2/5-5-5-2/5-6-72/5-5-5-2/5-6-7---------|
pm.........         ........
I will reach for you. I will reach my hand.
No one will reach for me. No one will touch my skin.

     A       A Bb B   A       A Bb B
e|----------------------------------------| x1
B|----------------------------------------|
G|----------------------------------------|
D|--/7-7-7---/7-8-9--/7-7-7---/7-8-9------|
A|--/7-7-7---/7-8-9--/7-7-7---/7-8-9------|
E|-2/5-5-5-2/5-6-72/5-5-5-2/5-6-7---------|
pm.........
I will accept. I will accept my pain.

     A       A Bb B   A       A Bb B
e|----------------------------------------| x1
B|----------------------------------------|
G|----------------------------------------|
D|--/7-7-7---/7-8-9--/7-7-7---/7-8-9------|
A|--/7-7-7---/7-8-9--/7-7-7---/7-8-9------|
E|-2/5-5-5-2/5-6-72/5-5-5-2/5-6-7---------|
I don't deserve to die like this. No one deserves to die like this.

   E               D       E         A       A Bb B   A       A Bb B
e|-0---------------5-------0--------------------------------------------|x2
B|-0---------------7-------0--------------------------------------------|
G|-1---------------7-------1--------------------------------------------|
D|-2---------------7-------2---------/7-7-7---/7-8-9--/7-7-7---/7-8-9---|
A|-2---------------5-------2---------/7-7-7---/7-8-9--/7-7-7---/7-8-9---|
E|-0-----------------------0--------2/5-5-5-2/5-6-72/5-5-5-2/5-6-7------|
Sometimes I get so mad that I just want to break the world.
Sometimes I get so mad that I just want to break the world.
Break the world

     A       A Bb B   A       A Bb B   A       A Bb B   A       A Bb B
e|-----------------------------------------------------------------------|
B|-----------------------------------------------------------------------|
G|-----------------------------------------------------------------------|
D|--/7-7-7---/7-8-9--/7-7-7---/7-8-9--/7-7-7---/7-8-9--/7-7-7---/7-8-9---|
A|--/7-7-7---/7-8-9--/7-7-7---/7-8-9--/7-7-7---/7-8-9--/7-7-7---/7-8-9---|
E|-2/5-5-5-2/5-6-72/5-5-5-2/5-6-7-2/5-5-5-2/5-6-72/5-5-5-2/5-6-7---------|
 |                                                                     |
e|---------------------------------------------------------------------|
B|---------------------------------------------------------------------|
G|-9-9-9-9-9-9-9-9-9-8-8-8-8-8-8-8-8-10-10-10-10-10-10-9-9-9-9-9-9-9-9-|
D|---------------------------------------------------------------------|
A|---------------------------------------------------------------------|
E|---------------------------------------------------------------------|

     A       A Bb B   A       A Bb B   A       A Bb B   A       A Bb B
e|-----------------------------------------------------------------------|
B|-----------------------------------------------------------------------|
G|-----------------------------------------------------------------------|
D|--/7-7-7---/7-8-9--/7-7-7---/7-8-9--/7-7-7---/7-8-9--/7-7-7---/7-8-9---|
A|--/7-7-7---/7-8-9--/7-7-7---/7-8-9--/7-7-7---/7-8-9--/7-7-7---/7-8-9---|
E|-2/5-5-5-2/5-6-72/5-5-5-2/5-6-7-2/5-5-5-2/5-6-72/5-5-5-2/5-6-7---------|
 |                                                                     |
e|----------------------------------13-14-14-14-14--------20-19----19--|
B|-11-14-11-14-11-14-15-14-11-14-15-----------------------------19-----|
G|---------------------------------------------------------------------|
D|---------------------------------------------------------------------|
A|---------------------------------------------------------------------|
E|---------------------------------------------------------------------|

                                                B             A               F#
e|----------------------------------2-------------0---------------2----|
B|----------------------------------4-------------2---------------2----|
G|----------------------------------4-------------2---------------3----|
D|----------------------------------4-------------2---------------4----|
A|----------------------------------2-------------0---------------4----|
E|----------------------------------------------------------------2----|
 |                                                                     |
e|-----------19----19----19b-------------------------------------------|
B|--------19----19----19-----------------------------------------------|
G|----------------------------------5--5b-5p4-2-----------2-4b5r4------|
D|----------------------------------------------4-2---2h4--------------|
A|---------------------------------------------------------------------|
E|---------------------------------------------------------------------|
comments
We did not receive enough feedback on this tab! Please rate:
print report bad tab
1 2 3 4 5
I want to post or [tab]
guest
You may want to rate the tab now too:
select rating
Please do not post tabs as comments. Select "correction" instead!