Oops, an error
Loading. Please wait.

Like A California King Tab

1,079 views 1 this week
no commentswrite comment
1 2 3 4 5
2 more votes to show rating
add to favorites
launch autoscroll
font size
0
reset
how to read this tab
guitar tuner
Autoscroll
slow
fast
+/-
esc
set tempo
stop
Help us to improve Ultimate-Guitar.com Take our survey!
×
Difficulty
intermediate
Tuning: STandard
Everclear
Like a California King

Intro
E-------------------------------------------1-----------------|
B--------------------------------------------1----------------|
G---------------------------------------------2---------------|
D----------------------------------------------3--------------|
A-----------------3-----------------------------3-------------|
E-------3----5---------5----3----5---------------1------------|

E-----------------------------------------------|
B-----------------------------------------------|
G-----------------------------------------------|
D-----------------------------------------------|
A-------------------------------3---------------|
E-------------------------3--5-----5--3--5------|

FIGURE 1
E-----------------------------------------------------------|
B-----------------------------------------------------------|
G-----------------------------------------------------------|
D------------------------------------------------------3--5-|
A-3-3-3-3-3---------3-----------3-3-3-3-3--------3--5-------|
E-1-1-1-1-1---3--5----5--3--5---1-1-1-1-1--3--5-------------|
Repeat figure 1 once more

I see you have made yourself a brand-new life Oooo
E------------------------------------------------|
B------------------------------------------------|
G------------------------------------------------|
D------------------------------------------------|
A-3--3--3--3--3--3--3--3--3--------3-------------|
E-1--1--1--1--1--1--1--1--1--3--5-----5--3--5----|
P.M.........................

 such a cool blue star with a bright new shine
E------------------------------------------------|
B------------------------------------------------|
G------------------------------------------------|
D------------------------------------------------|
A-3--3--3--3--3--3--3--3--3--------3-------------|
E-1--1--1--1--1--1--1--1--1--3--5-----5--3--5----|
P.M.........................

I see you wear your checkered past just like a shining suit of gold
E-----------------------------------------------|
B-----------------------------------------------|
G-----------------------------------------------|
D----------------------------------------3--5---|
A-3--3--3--3--3--3--3--3--3--------3--5---------|
E-1--1--1--1--1--1--1--1--1--3--5---------------|
P.M.........................

      I know you think you look so special
E--------------------------|
B--------------------------|
G--4--4--4--4--7--7--7--7--|
D--5--5--5--5--8--8--8--8--|
A--5--5--5--5--8--8--8--8--|
E--3--3--3--3--6--6--6--6--|

E------------------------------------------------|
B------------------------------------------------|
G------------------------------------------------|
D------------------------------------------------|
A-3--3--3--3--3--3--3--3--3--------3-------------|
E-1--1--1--1--1--1--1--1--1--3--5-----5--3--5----|

E-----------------------------------------------------------|
B-----------------------------------------------------------|
G-----------------------------------------------------------|
D----------------------------------------------------3--5---|
A-3--3--3--3--3--3--3--3--3--3--3--3--3--------3--5---------|
E-1--1--1--1--1--1--1--1--1--1--1--1--1--3--5---------------|

 I am told you have found yourself a brand-new time
E------------------------------------------------|
B------------------------------------------------|
G------------------------------------------------|
D------------------------------------------------|
A-3--3--3--3--3--3--3--3--3--------3-------------|
E-1--1--1--1--1--1--1--1--1--3--5-----5--3--5----|
P.M.........................

 Watch the world stand still as the years go by
E------------------------------------------------|
B------------------------------------------------|
G------------------------------------------------|
D------------------------------------------------|
A-3--3--3--3--3--3--3--3--3--------3-------------|
E-1--1--1--1--1--1--1--1--1--3--5-----5--3--5----|
P.M.........................

I know you think you are new and different but it makes no sense to me
E-----------------------------------------------------------|
B-----------------------------------------------------------|
G-----------------------------------------------------------|
D----------------------------------------------------3--5---|
A-3--3--3--3--3--3--3--3--3--3--3--3--3--------3--5---------|
E-1--1--1--1--1--1--1--1--1--1--1--1--1--3--5---------------|
P.M.....................................

        There is nothing new about you  just another self made man
E--------------------------------------------------|
B--------------------------------------------------|
G--4--4--4--4--7--7--7--7--2--2--2--2--11-11-11-11-|
D--5--5--5--5--8--8--8--8--3--3--3--3--12-12-12-12-|
A--5--5--5--5--8--8--8--8--3--3--3--3--12-12-12-12-|
E--3--3--3--3--6--6--6--6--1--1--1--1-10-10-10-10--|

There is nothing new that I can see, enjoy it while you can
E--------------------------------------------------|
B--------------------------------------------------|
G--4--4--4--4--7--7--7--7--2--2--2--2--11-11-11-11-|
D--5--5--5--5--8--8--8--8--3--3--3--3--12-12-12-12-|
A--5--5--5--5--8--8--8--8--3--3--3--3--12-12-12-12-|
E--3--3--3--3--6--6--6--6--1--1--1--1-10-10-10-10--|

      I know you think you look so special, What makes you think you are so special
E-------------------------------------------------------------------------|
B-------------------------------------------------------------------------|
G--4--4--4--4--7--7--7--7--2--2--2--2-10-10-10-10--9--9--9--9--2--2--2--2-|
D--5--5--5--5--8--8--8--8--3--3--3--3--11-11-11-1110-10-10-10--3--3--3--3-|
A--5--5--5--5--8--8--8--8--3--3--3--3--11-11-11-1110-10-10-10--3--3--3--3-|
E--3--3--3--3--6--6--6--6--1--1--1--1--9--9--9--9--8--8--8--8--1--1--1--1-|

  What makes you think you are unique
E------------------------------------|
B------------------------------------|
G10-10-10-10--9--9--9--9--2--2--2--2-|
D-11-11-11-1110-10-10-10--3--3--3--3-|
A-11-11-11-1110-10-10-10--3--3--3--3-|
E-9--9--9--9--8--8--8--8--1--1--1--1-|

    I see you smile and I get angry as I
E------------------------------------|
B------------------------------------|
G10-10-10-10--9--9--9--9--7--7--7--7-|
D-11-11-11-1110-10-10-10--8--8--8--8-|
A-11-11-11-1110-10-10-10--8--8--8--8-|
E-9--9--9--9--8--8--8--8--6--6--6--6-|

watch you go colossal like a California King
E--------------------------------------------------|
B--------------------------------------------------|
G-11-11-11-11-4--4--4--4--7--7--7--7--2--2--2--2---|
D-12-12-12-12-5--5--5--5--8--8--8--8--3--3--3--3---| let ring
A-12-12-12-12-5--5--5--5--8--8--8--8--3--3--3--3---|
E10-10-10-10--3--3--3--3--6--6--6--6--1--1--1--1---|

There is some talking in the background while you let it ring
there is also a little feedback.

As the background voice says "carpetbaggers" play the below riff
E-----------------------|
B-----------------------|
G-----------------------|
D-----------------------|
A-------3---------------|
E-3--5-----5--3--5------|

    I hear you gave the world a brand-new voice
E----------------------------------------|
B----------------------------------------|
G----------------------------------------|
D----------------------------------------|
A-3--3--3--3--3--3--3--3--3--3--3--3--3--|
E-1--1--1--1--1--1--1--1--1--1--1--1--1--|

Oooo      Such a happy melody with a new wave wine
E----------------------------------------|
B----------------------------------------|
G----------------------------------------|
D----------------------------------------|
A-3--3--3--3--3--3--3--3--3--3--3--3--3--|
E-1--1--1--1--1--1--1--1--1--1--1--1--1--|

                                      Yeah
E----------------------------------------|
B----------------------------------------|
G----------------------------------------|
D----------------------------------------|
A-3--3--3--3--3--3--3--3--3--3--3--3--3--|
E-1--1--1--1--1--1--1--1--1--1--1--1--1--|
|                                        |
E-1--1--1--1--1--1--1--1--1--1--1--1--1--|
B-5--5--5--5--5--5--5--5--5--5--5--5--5--|
G----------------------------------------|
D----------------------------------------|
A----------------------------------------|
E----------------------------------------|

      I see you hide behind your own  noise I think I've seen enough
E-----------------------------------------------------------|
B-----------------------------------------------------------|
G-----------------------------------------------------------|
D----------------------------------------------------3--5---|
A-3--3--3--3--3--3--3--3--3--3--3--3--3--------3--5---------|
E-1--1--1--1--1--1--1--1--1--1--1--1--1--3--5---------------|

              I will find you in a crowded room I will Knock you off your feet
E------1---------1----------1----------1--------|
B--------1---------1----------1----------1------|
G-----------------------------------------------|
D-----------------------------------------------|
A-5---------8----------3----------12------------|
E-3---------6----------1---------10-------------|

                I will burn you just like teenage love I will eat you just like meat
E------1---------1----------1----------1--------|
B--------1---------1----------1----------1------|
G-----------------------------------------------|
D-----------------------------------------------|
A-5---------8----------3----------12------------|
E-3---------6----------1---------10-------------|

              I will break you into pieces hold you up for all the world to see
E------1---------1----------1----------1--------|
B--------1---------1----------1----------1------|
G-----------------------------------------------|
D-----------------------------------------------|
A-5---------8----------3----------12------------|
E-3---------6----------1---------10-------------|


       Yeah what makes you think you are better than me?
E------1---------1------------------------------|
B--------1---------1----------------------------|
G----------------------2--2--2--2--2--2--2--2---|
D----------------------3--3--3--3--3--3--3--3---|
A-5---------8----------3--3--3--3--3--3--3--3---|
E-3---------6----------1--1--1--1--1--1--1--1---|

                    What makes you think you're better?
E------------------------------------|
B------------------------------------|
G10-10-10-10--9--9--9--9--2--2--2--2-|
D-11-11-11-1110-10-10-10--3--3--3--3-|
A-11-11-11-1110-10-10-10--3--3--3--3-|
E-9--9--9--9--8--8--8--8--1--1--1--1-|

         What makes you think you are complete?
E------------------------------------|
B------------------------------------|
G10-10-10-10--9--9--9--9--2--2--2--2-|
D-11-11-11-1110-10-10-10--3--3--3--3-|
A-11-11-11-1110-10-10-10--3--3--3--3-|
E-9--9--9--9--8--8--8--8--1--1--1--1-|

 What makes you think you are the only one immune to falling down?
E------------------------------------------------|
B------------------------------------------------|
G10-10-10-10--9--9--9--9--2--2--2--2--2--2--2--2-|
D-11-11-11-1110-10-10-10--3--3--3--3--3--3--3--3-|
A-11-11-11-1110-10-10-10--3--3--3--3--3--3--3--3-|
E-9--9--9--9--8--8--8--8--1--1--1--1--1--1--1--1-|

                     Why can't you see?
E------------------------------------|
B------------------------------------|
G10-10-10-10--9--9--9--9--7--7--7--7-|
D-11-11-11-1110-10-10-10--8--8--8--8-|
A-11-11-11-1110-10-10-10--8--8--8--8-|
E-9--9--9--9--8--8--8--8--6--6--6--6-|

      I see you fall and I get happy I will watch you burn like fire
E--------------------------------------------------|
B--------------------------------------------------|
G-11-11-11-11-4--4--4--4--7--7--7--7--7--7--7--7---|
D-12-12-12-12-5--5--5--5--8--8--8--8--8--8--8--8---| let ring
A-12-12-12-12-5--5--5--5--8--8--8--8--8--8--8--8---|
E10-10-10-10--3--3--3--3--6--6--6--6--6--6--6--6---|

                   I will watch you burn like a Californian King
E--------------------------------------|
B--------------------------------------|
G-7--7--7--7--7--7--7--7--7--7--7--2---|
D-8--8--8--8--8--8--8--8--8--8--8--3---| let ring
A-5--5--5--5--8--8--8--8--8--8--8--3---|
E-6--6--6--6--6--6--6--6--6--6--6--1---|

                               Cali------orn------|ian King
E-------------------------------------------------|
B-------------------------------------------------|
G-------------------------------------------------|
D-------------------------------------------------|
A-------------------------------3-----------------|
E-------------------------3--5-----5--3--5--------|

                     I will watch you burn like a Cali-----forn------|ian King
E--------------------------------------------------------------------|
B--------------------------------------------------------------------|
G--------------------------------------------------------------------|
D--------------------------------------------------------------------|
A-3-----------------------------3------------------------------------|
E-1-----------------------3--5-----5--3--5---------------------------|
repeat
                      Hmmm I will watch you burn
E-----------------------------------------------|
B-----------------------------------------------|
G-----------------------------------------------|
D-----------------------------------------------|
A-3-----------------------------3---------------|
E-1-----------------------3--5-----5--3--5------|

                        Yes I will watch you burn
E-----------------------------------------------|
B-----------------------------------------------|
G-----------------------------------------------|
D-----------------------------------------------|
A-3-----------------------------3---------------|
E-1-----------------------3--5-----5--3--5------|

repeat a few times as you fade out.

VERSION 2---Tabbed by Steve Smith

this song is pretty easy, you need 2 guitars though

intro (heavy distortion, big guitar sound)
E-----------------------------------|
b|----------------------------------|
g|----------------------------------|
d|---------------------------3------|
a|-----------3---------------3------|
E--3--5---------5---3---5---1-------|

then
E-----------------------------------|
b|----------------------------------|
g|----------------------------------|
d|----------------------3--5--------|
a|------------3--5------------------|
E--3--5-----------------------------|

guitar2 plays
E-------------------------|
b|--10b@10-b10-b10--------|
g|------------------------|
d|------------------------|
a|------------------------|
E-------------------------|
Suggest correction
Give kudos to tab author, rate the tab!
1 2 3 4 5
comments
print report bad tab
guest
You may want to rate the tab now too:
select rating
Wanna post a correction for this tab? Suggest correction