Oops, an error
Loading. Please wait.

Out Of My Depth Bass

77 views 1 this week
no commentswrite comment
1 2 3 4 5
3 more votes to show rating
add to favorites
launch autoscroll
font size
0
reset
guitar tuner
×
Best way to learn
"Out Of My Depth"
Autoscroll
slow
fast
+/-
esc
set tempo
stop
Author
intro/verse
------------------------------------------------------|
---------7-9---------5-7---------3-5---------5-7------|  (play 1st part 3X
-----7899--------5677--------3455--------5677---------| on 1st time)
/77-9--------55-7--------33-5--------55-7-------------|
out of my depth,
lost in the air
falling past her like a broken elevator
out of my depth
lost in the dark
waiting for that other shoe to come down hard
i can not communicate like i wish i could
i do not deal with my problems like i know i should
i am out of my depth
i am out of my league
watchin everything just slip away from me

prechorus
---------------------------------------|
---------------------------------------|
---4*-9*-2222--------------------------|
-4*----------2222----------------------|
something bad is gonna happen
i can feel it deep inside
there are shadows all around me
like a dark moon on the rise

chorus
---------------------------------------|
---------------------------------------|
-----4-999-222222----------------------|
-4-4-------------22222-----------------|
oh, woah
i am in over my head
im in too deep here over my head
i should keep my opions to myself
i guess i am out of my depth

outro-the bass dosent actually play this but its fun to play
---------------------------------------|
---------------------------------------|
-7-7-777-777-77-----2-2-222244422222---|
---------------------------------------|
Suggest correction
Give kudos to tab author, rate the tab!
1 2 3 4 5
comments
print report bad tab
guest
You may want to rate the tab now too:
select rating
Wanna post a correction for this tab? Suggest correction