Oops, an error
Loading. Please wait.

Santa Monica Tab

version 1
version 1

Whole song

Interactive

198,344 views 216 this week
19 commentsread comments
1 2 3 4 5
x 39
add to favorites
launch autoscroll
font size
0
reset
how to read this tab
guitar tuner
backing track
0:00
0:00
Autoscroll
slow
fast
+/-
esc
set tempo
stop
Everclear,Santa Monica.
Tabbed by Chris Rucko,rucko@everclearfanatic.com.

[Intro]

e|------------------------------------------------|
B|------------------------------------------------|
G|------------------------------------------------|
D|-5-5-5-5-5-5-5-5-xxx-5-5-5-5-5-5-xxx-5-5-5-5-5--|
A|-5-5-5-5-5-5-5-5-xxx-5-5-5-5-5-5-xxx-5-5-5-5-5--|
E|-3-3-3-3-0-0-3-3-xxx-3-3-0-0-3-3-xxx-3-3-0-0-3--|


[Verse]

"i'm still living..."
e|---------------------------------------------------|
B|---------------------------------------------------|
G|-----------------------------------------77-779955-|
D|-----55-555555-xxx-555555-555555-xxx-555577-779955-|
A|-----55-555555-xxx-555555-555555-xxx-555555-557733-|
E|-----33-330033-xxx-330033-330033-xxx-3300----------|

e|--------------------------|
B|--------------------------|
G|xxx-7-7-5-5---------------|
D|xxx-7-7-5-5-5-5-5-5-5-5-5-|
A|xxx-5-5-3-3-5-5-5-5-5-5-5-|repeat verse as many times as
E|------------3-3-3-3-0-0-3-| needed


[Chorus]

"we can live..."
e|-------------------------------------------------------------|
B|-------------------------------------------------------------|
G|------------7-7-xx-7-7-9-9-5-5-xx-5-5-9-9-7-7-xx-7-7-9-9-----|
D|------------7-7-xx-7-7-9-9-5-5-xx-5-5-9-9-7-7-xx-7-7-9-9-5-5-|
A|------------5-5-xx-5-5-7-7-3-3-xx-3-3-7-7-5-5-xx-5-5-7-7-5-5-|
E|---------------------------------------------------------3-3-|

e|------------------------------------------------------|
B|------------------------------------------------------|
G|-9-9-7-7-xx-7-7-9-9-5-5-xx-5-5-9-9-7-7-xx-7-7-9-9-----|
D|-9-9-7-7-xx-7-7-9-9-5-5-xx-5-5-9-9-7-7-xx-7-7-9-9-5-5-|
A|-7-7-5-5-xx-5-5-7-7-3-3-xx-3-3-7-7-5-5-xx-5-5-7-7-5-5-|
E|--------------------------------------------------3-3-|

(Repeat intro)


[Verse 2] 
Suggest correction
comments
print report bad tab
19 comments total. Showing first comments.
0 reply
Stoopid_Bauto 10 Mar 31, 2002 07:00 PM

this tab is perfect 100% ur cool dude

0 reply
int0xicated_88 30 Oct 25, 2002 08:00 PM

hey, this is the perfect version...well the intro neway...
itd help if it was typed proply but watcha gunna do?

0 reply
Mike_0xbig18 355 Aug 06, 2004 08:00 PM

i think u got the tunings messed up isnt it supposed to be e a d g b e not the mirror image?
but other than that perfect. Good Job!

guest
You may want to rate the tab now too:
select rating
Wanna post a correction for this tab? Suggest correction