Oops, an error
Loading. Please wait.

Strawberry bass

version 1
version 1

Whole song

Interactive

361 views 1 this week
no commentswrite comment
1 2 3 4 5
2 more votes to show rating
add to favorites
×
Save as Personal and add changes to this tab that will be seen only by you. Learn more ›
×
You can save this tab as Personal to edit and correct it or add notes. All changes will be seen only by you. Learn more »
launch autoscroll
font size
0
reset
guitar tuner
edit
Autoscroll
slow
fast
+/-
esc
set tempo
stop
-------------------------------------------------------------------------------
			     SONG NAME - Band Name
-------------------------------------------------------------------------------

Tabbed By : Jak
e-mail: five_star_sabbi@hotmail.com

Just simple, going off the guitar parts. You gotta listen to the song where it goes between A0 and A2
Tuning:

G|-------------------------------------------|
D|-------------------------------------------|
A|--0-0-0-0-0-0-0-0---2-2-2-2-2-2-2-2--------|
E|-------------------------------------------|

G|-------------------------------------------|
D|-------------------------------------------|
A|--0-0-0-0-0-0-0-0---2-2-2-2-4-4-4-4--------|
E|-------------------------------------------|

And so on until the Chorus:

G|-------------------------------------------------------------------------|
D|-------------------------------------------------------------------------|
A|-5-5-5-5-0-0-0-0-2-2-2-2-4-4-4-4-5-5-5-5-0-0-0-0-2-2-2-2-4-4-4-4---------|
E|-------------------------------------------------------------------------|
then it carries on as above until the last note 
G|-------------------------------------------------------------------------|
D|-------------------------------------------------------------------------|
A|---0---------------------------------------------------------------------|
E|-------------------------------------------------------------------------|

No tricky stuff, no slides, slaps pops, mutes etc. Just plain old finger picking.

===============================================================================

            
            
Suggest correction
Creating personal tab
Creating personal tab
You can edit any tab online and save it as your Personal.

You can edit, replace or remove any tab part or add personal notes – all changes will be seen only by you.

Personal tabs can be accessed anytime from any device, even offline.
Learn more »
Give kudos to tab author, rate the tab!
1 2 3 4 5
comments
print report bad tab
guest
You may want to rate the tab now too:
select rating
Wanna post a correction for this tab? Suggest correction