Oops, an error
Loading. Please wait.

Why I Dont Believe In God Tab

2,901 views 1 this week
2 commentsread comments
1 2 3 4 5
please rate
add to favorites
launch autoscroll
font size
0
reset
how to read this tab
guitar tuner
Autoscroll
slow
fast
+/-
esc
set tempo
stop
Help us to improve Ultimate-Guitar.com Take our survey!
×
Why I dont Believe in God
So Much For The AFterglow
Music By Everclear
Lyrics By Art Alexakis


Intro - For those of you who know harmonics, 
the intro is played by harmonics on the right 
bar of the fret.

e|---------------------------------|
b|------7--------7---------7-------|
g|-12----7--12----7---12----7--0~--|
D|---12---7---12---7----12---7-----|
A|---------------------------------|
E|---------------------------------|

Repeat 4x but on the last time dont do 
the little riff at the end
(Main Riff)
e|--------3-3--------------------------|
b|--------0-0-------0-h3-0----------0--|
g|------0-0-0--------------2------0----|
D|-0----0-----0---0----------0-h2------|
A|-0--2-2-----0---2--------------------|
E|-0-h3-------0-h-3--------------------|

Break into this>
e|--5-/-3--------------------------------------------------|
b|--0-/-0-----------0--------------------------------------|
g|--0-/-0---------0----2-2-0-h2-0-------------0------------|
D|--4-/-2--2-0-h2------0-0---------2-2-0-h2-2---0-0-0-h2-0-|
A|--5-/-3--3-----------------------3-3----------2-2--------|
E|---------------------------------------------------------|
I heard the truth about you...

e|--------------------------------------------------3------|
b|----------0-------------------------------0-0-----0------|
g|--------0----2-2-0-h2-0-------------------2-2-h4--0------|
D|-2-0-h2------0-0---------2-2------0---------------2------|
A|-3-----------------------2-2-0-h2----2-2----------3------|
E|-------------------------------------3-3-----------------|
and it doesn't really read at all like the whipping stick you raised me with

e|--5-/-3--------------------------------------------------|
b|--0-/-0-----------0--------------------------------------|
g|--0-/-0---------0----2-2-0-h2-0-------------0------------|
D|--4-/-2--2-0-h2------0-0---------2-2-0-h2-2---0-0-0-h2-0-|
A|--5-/-3--3-----------------------3-3----------2-2--------|
E|---------------------------------------------------------|
Scared woman in a private hell hushed voice like electric bells

e|--------------------------------------------------3------|
b|----------0-------------------------------0-0-----0------|
g|--------0----2-2-0-h2-0-------------------2-2-h4--0------|
D|-2-0-h2------0-0---------2-2------0---------------2------|
A|-3-----------------------2-2-0-h2----2-2----------3------|
E|-------------------------------------3-3-----------------|
Strange talk about Edgar Cayce and the long lame walk of the dark 70's

e|--5-/-3--------------------------------------------------|
b|--0-/-0-----------0--------------------------------------|
g|--0-/-0---------0----2-2-0-h2-0-------------0------------|
D|--4-/-2--2-0-h2------0-0---------2-2-0-h2-2---0-0-0-h2-0-|
A|--5-/-3--3-----------------------3-3----------2-2--------|
E|---------------------------------------------------------|
Strange talk about Edgar Cayce and the long lame walk of the dark 70's

e|--5-/-3--------------------------------------------------|
b|--0-/-0-----------0--------------------------------------|
g|--0-/-0---------0----2-2-0-h2-0-------------0------------|
D|--4-/-2--2-0-h2------0-0---------2-2-0-h2-2---0-0-0-h2-0-|
A|--5-/-3--3-----------------------3-3----------2-2--------|
E|---------------------------------------------------------|
I heard the truth about you, yeah you

e|--------------------------------------------------3------|
b|----------0-------------------------------0-0-----0------|
g|--------0----2-2-0-h2-0-------------------2-2-h4--0------|
D|-2-0-h2------0-0---------2-2------0---------------2------|
A|-3-----------------------2-2-0-h2----2-2----------3------|
E|-------------------------------------3-3-----------------|
Aww Momma they woke me up I was deep in an idiot sleep

e|--5-/-3--------------------------------------------------|
b|--0-/-0-----------0--------------------------------------|
g|--0-/-0---------0----2-2-0-h2-0-------------0------------|
D|--4-/-2--2-0-h2------0-0---------2-2-0-h2-2---0-0-0-h2-0-|
A|--5-/-3--3-----------------------3-3----------2-2--------|
E|---------------------------------------------------------|
I was just 8 years old, heard big words with a horrble sound

e|--------------------------------------------------3------|
b|----------0-------------------------------0-0-----0------|
g|--------0----2-2-0-h2-0-------------------2-2-h4--0------|
D|-2-0-h2------0-0---------2-2------0---------------2------|
A|-3-----------------------2-2-0-h2----2-2----------3------|
E|-------------------------------------3-3-----------------|
Why'd they have to call my school, tell me my mother had a nervous breakdown?

Repeat 4x
e|--------3-3--------------------------|
b|--------0-0-------0-h3-0----------0--|
g|------0-0-0--------------2------0----|
D|-0----0-----0---0----------0-h2------|
A|-0--2-2-----0---2--------------------|
E|-0-h3-------0-h-3--------------------|

e|--5-/-3--------------------------------------------------|
b|--0-/-0-----------0--------------------------------------|
g|--0-/-0---------0----2-2-0-h2-0-------------0------------|
D|--4-/-2--2-0-h2------0-0---------2-2-0-h2-2---0-0-0-h2-0-|
A|--5-/-3--3-----------------------3-3----------2-2--------|
E|---------------------------------------------------------|
I wish i believed like you do

e|--------------------------------------------------3------|
b|----------0-------------------------------0-0-----0------|
g|--------0----2-2-0-h2-0-------------------2-2-h4--0------|
D|-2-0-h2------0-0---------2-2------0---------------2------|
A|-3-----------------------2-2-0-h2----2-2----------3------|
E|-------------------------------------3-3-----------------|
In the myth of a merciful god, In the myth of a heaven and hell

e|--5-/-3--------------------------------------------------|
b|--0-/-0-----------0--------------------------------------|
g|--0-/-0---------0----2-2-0-h2-0-------------0------------|
D|--4-/-2--2-0-h2------0-0---------2-2-0-h2-2---0-0-0-h2-0-|
A|--5-/-3--3-----------------------3-3----------2-2--------|
E|---------------------------------------------------------|
I hear the voices you hear sometimes

e|--------------------------------------------------3------|
b|----------0-------------------------------0-0-----0------|
g|--------0----2-2-0-h2-0-------------------2-2-h4--0------|
D|-2-0-h2------0-0---------2-2------0---------------2------|
A|-3-----------------------2-2-0-h2----2-2----------3------|
E|-------------------------------------3-3-----------------|
Some times it get so much, i feel like letting go

e|--5-/-3--------------------------------------------------|
b|--0-/-0-----------0--------------------------------------|
g|--0-/-0---------0----2-2-0-h2-0-------------0------------|
D|--4-/-2--2-0-h2------0-0---------2-2-0-h2-2---0-0-0-h2-0-|
A|--5-/-3--3-----------------------3-3----------2-2--------|
E|---------------------------------------------------------|
Sometimes it gets so hard, i feel like letting it go

e|--------------------------------------------------3------|
b|----------0-------------------------------0-0-----0------|
g|--------0----2-2-0-h2-0-------------------2-2-h4--0------|
D|-2-0-h2------0-0---------2-2------0---------------2------|
A|-3-----------------------2-2-0-h2----2-2----------3------|
E|-------------------------------------3-3-----------------|
Sometimes it gets so goddamn hard I feel like letting it all go

Solo (Try a Slide) Second Guitar play main riff
e|---------------------12--------------------12------------|
b|------12-------12------12\---10/12---------12--------12--|
g|-----------12----------12\---10/12---------------12------|
D|-/12-----------------------------------------------------|
A|-/12-----------------------------------------------------|
E|---------------------------------------------------------|

e|------------------------12--------------------------|
b|--------------10/12---------12---12-------------10/-|
g|--12----------10/12--------------------12-------10/-|
D|--------12----------------------------------12------|
A|----------------------------------------------------|
E|----------------------------------------------------|

e|-3-3--3------------|
b|-0-3--0------------|
g|-0-2--0----------0-|
D|-2----2-0-0-0h-2---|
A|-3----3-2-2--------|
E|-------------------|
I ran Away went looking for you back to Culver City and the old neighborhood

e|-3-3--3------------|
b|-0-3--0------------|
g|-0-2--0------------|
D|-2----2-0-0------0-|
A|-3----2-2-2-0-h2---|
E|--------3-3--------|
Need to know if you were really gone, Need to know if you were gone for good

e|-3-3-3-xxxx-3-3-3-3-3-3------|
b|-0-0-0-xxxx-3-3-3-0-0-0------|
g|-0-0-0-xxxx-2-2-2-0-0-0-0-0--|
D|-2-2-2-xxxx-------2-2-2-0-0--|
A|-3-3-3-xxxx-------3-3-3-2-2--|
E|-----------------------------|
I ran through the projects at night hide in the dark from my friends in the 
light

e|-3-3-3-xxxx-3-3-3-3-3-3------|
b|-0-0-0-xxxx-3-3-3-0-0-0------|
g|-0-0-0-xxxx-2-2-2-0-0-0-0-0--|
D|-2-2-2-xxxx-------2-2-2-0-0--|
A|-3-3-3-xxxx-------2-2-2-2-2--|
E|------------------------3-3--|
Hide from my brother in law, Hide from the things he'd say

e|-3-3-3-xxxx-3-3-3-3-3-3------|
b|-0-0-0-xxxx-3-3-3-0-0-0------|
g|-0-0-0-xxxx-2-2-2-0-0-0-0-0--|
D|-2-2-2-xxxx-------2-2-2-0-0--|
A|-3-3-3-xxxx-------3-3-3-2-2--|
E|-----------------------------|
Ya said you werent losing your mind, he said you just needed a rest

e|-3-3-3-xxxx-3-3-3-3-3-3------|
b|-0-0-0-xxxx-3-3-3-0-0-0------|
g|-0-0-0-xxxx-2-2-2-0-0-0-0-0--|
D|-2-2-2-xxxx-------2-2-2-0-0--|
A|-3-3-3-xxxx-------2-2-2-2-2--|
E|------------------------3-3--|
Said you'd be coming home soon

e|-3-3--3------------|
b|-0-3--0------------|
g|-0-2--0----------0-|
D|-2----2-0-0-0h-2---|
A|-3----3-2-2--------|
E|-------------------|
Said the doctors there would know whats best, he said that maybe i could
go live with them for a while....

Play a "C"
(Stop Music)
I know the truth about you...
i know the truth about you...

e|----3-3--3------------|
b|----0-3--0------------|
g|----0-2--0----------0-|
D|----2----2-0-0-0h-2---|
A|----3----3-2-2--------|
E|/12-------------------|
I know the truth about you
I know the truth
I know the truth 
I know the truth 
I know the truth
I know the truth about you

e|----------------------------------0----------|
b|------0-------0---0-0-------------0-0-0------|
g|-0------0----0--0-2-0----------0--2-0-0------|
D|----2-----2---------2-2-2-0-h2------2-0------|
A|-3----------3-------3-3-3-----------3-2------|
E|---------------------------------------------|
Momma they woke me up I was just 8 years old
Sometimes it get so hard
I feel like letting it go

Sometimes it gets so hard 
i feel like leting it all go

e|--------3-3--------------------------|
b|--------0-0-------0-h3-0----------0--|
g|------0-0-0--------------2------0----|
D|-0----0-----0---0----------0-h2------|
A|-0--2-2-----0---2--------------------|
E|-0-h3-------0-h-3--------------------|
Letting it all go

e|--------3-3--------------------------|
b|--------0-0-------0-h3-0----------0--|
g|------0-0-0--------------2------0----|
D|-0----0-----0---0----------0-h2------|
A|-0--2-2-----0---2--------------------|
E|-0-h3-------0-h-3--------------------|
Letting it all go

e|--------3-3--------------------------|
b|--------0-0-------0-h3-0----------0--|
g|------0-0-0--------------2------0----|
D|-0----0-----0---0----------0-h2------|
A|-0--2-2-----0---2--------------------|
E|-0-h3-------0-h-3--------------------|
Letting it all go

e|--------3-3--------------------------|
b|--------0-0-------0-h3-0----------0--|
g|------0-0-0--------------2------0----|
D|-0----0-----0---0----------0-h2------|
A|-0--2-2-----0---2--------------------|
E|-0-h3-------0-h-3--------------------|
Yeah letting it all go.........
Suggest correction new What's this?
You can suggest a correction to this tab. Community and Mods will review your correction and vote to approve or reject it.
comments
We did not receive enough feedback on this tab! Please rate:
print report bad tab
1 2 3 4 5
2 comments total.
0 reply
tab_monkey 68 wrote on July 14 2004, 12:00 am

does anybody have any idea if this is right? i can't really tell

0 reply
cmwcaelen1 30 wrote on April 8 2014, 01:05 am

The harmonics are played like that except that you have to capo 1 to get the right pitch. I'd assume a different guitar did that to the one that plays the rest of the guitar in the song.

guest
You may want to rate the tab now too:
select rating
Please do not post tabs as comments. Select "correction" instead!