Oops, an error
Loading. Please wait.

Your Genius Hands Tab

version 3
version 3

Whole song

132 views 1 this week
no commentswrite comment
1 2 3 4 5
please rate
add to favorites
launch autoscroll
font size
0
reset
how to read this tab
guitar tuner
Autoscroll
slow
fast
+/-
esc
set tempo
stop
Help us to improve Ultimate-Guitar.com Take our survey!
×
Difficulty
novice
-------------------------------------------------------------------------------
                             YOUR GENIUS HANDS - Everclear
-------------------------------------------------------------------------------

Tabbed by:Carrie Davies
Email:girlrock21@yahoo.com

Tuning:Standard

e|-------|
B|-20^b--|
G|-------|
D|-------|
A|-------|
E|-------|

e|------------------------------|
B|-3--3--3--3-3-3-3--3--3--3-3--| x9
G|------------------------------|
D|------------------------------|
A|------------------------------|
E|------------------------------|
Go!
Whoa!

e|------------------------------|
B|-3--3--3--3-3-3-3--3--3--3-3--|
G|------------------------------|
D|------------------------------|
A|------------------------------|
E|------------------------------|
 |                              | x4
e|-10-9-8-5--10-9-8b-5----------|
B|------------------------------|
G|------------------------------|
D|------------------------------|
A|------------------------------|
E|------------------------------|
I have seen you shake
I know what it cost you
I have heard your words
now Im big on your

e|------------------|
B|------------------|
G|-------7-------7--|
D|-7-6-5-7-5-4-3-7--|
A|-7-6-5-5-5-4-3-5--|
E|-5-4-3---3-2-1----|
noise

e|----------------------------|
B|-3--3--3--3-3-3--3--3--3-3--|
G|----------------------------|
D|----------------------------|
A|----------------------------|
E|----------------------------|
 |                            |
e|----------------------------|
B|----------------------------|
G|-12-12-12-12-12-10-9--------|
D|----------------------------|
A|----------------------------|
E|----------------------------|
my eyes arent big enough

e|------------------|
B|------------------|
G|-------7-------7--|
D|-7-6-5-7-5-4-3-7--|
A|-7-6-5-5-5-4-3-5--|
E|-5-4-3---3-2-1----|

e|----------------------------|
B|-3--3--3--3-3-3--3--3--3-3--|
G|----------------------------|
D|----------------------------|
A|----------------------------|
E|----------------------------|
 |                            |
e|----------------------------|
B|----------------------------|
G|-12-12-12-12-12-10-9--------|
D|----------------------------|
A|----------------------------|
E|----------------------------|
Cause I cant see your

e|------------------|
B|------------------|
G|-------7-------7--|
D|-7-6-5-7-5-4-3-7--|
A|-7-6-5-5-5-4-3-5--|
E|-5-4-3---3-2-1----|
hands

e|----------------------------|
B|-3--3--3--3-3-3--3--3--3-3--|
G|----------------------------|
D|----------------------------|
A|----------------------------|
E|----------------------------|
 |                            |
e|----------------------------|
B|----------------------------|
G|-12-12-12-12-12-10-9--------|
D|----------------------------|
A|----------------------------|
E|----------------------------|
I cant see what you

e|------------------|
B|------------------|
G|-------7-------7--|
D|-7-6-5-7-5-4-3-7--|
A|-7-6-5-5-5-4-3-5--|
E|-5-4-3---3-2-1----|
hold

e|----------------------------|
B|-3--3--3--3-3-3--3--3--3-3--|x4
G|----------------------------|
D|----------------------------|
A|----------------------------|
E|----------------------------|
Hey eh

e|----------------------------|
B|-3--3--3--3-3-3--3--3--3-3--|
G|----------------------------|
D|----------------------------|
A|----------------------------|
E|----------------------------|
 |                            |
e|----------------------------|
B|----------------------------|
G|-10-9-8-5-10-9-8b-5---------|
D|----------------------------|
A|----------------------------|
E|----------------------------|
I am growing now
as I watch you fade
now I know what you know
and Ill break the chains that you

e|------------------|
B|------------------|
G|-------7-------7--|
D|-7-6-5-7-5-4-3-7--|
A|-7-6-5-5-5-4-3-5--|
E|-5-4-3---3-2-1----|
have made

e|----------------------------|
B|-3--3--3--3-3-3--3--3--3-3--|
G|----------------------------|
D|----------------------------|
A|----------------------------|
E|----------------------------|
 |                            |
e|----------------------------|
B|----------------------------|
G|-12-12-12-12-12-10-9--------|
D|----------------------------|
A|----------------------------|
E|----------------------------|
This chain you made for me

e|------------------|
B|------------------|
G|-------7-------7--|
D|-7-6-5-7-5-4-3-7--|
A|-7-6-5-5-5-4-3-5--|
E|-5-4-3---3-2-1----|

e|----------------------------|
B|-3--3--3--3-3-3--3--3--3-3--|
G|----------------------------|
D|----------------------------|
A|----------------------------|
E|----------------------------|
 |                            |
e|----------------------------|
B|----------------------------|
G|-12-12-12-12-12-10-9--------|
D|----------------------------|
A|----------------------------|
E|----------------------------|
Yeah I will pull you

e|------------------|
B|------------------|
G|-------7-------7--|
D|-7-6-5-7-5-4-3-7--|
A|-7-6-5-5-5-4-3-5--|
E|-5-4-3---3-2-1----|
down

e|----------------------------|
B|-3--3--3--3-3-3--3--3--3-3--|
G|----------------------------|
D|----------------------------|
A|----------------------------|
E|----------------------------|
 |                            |
e|----------------------------|
B|----------------------------|
G|-12-12-12-12-12-10-9--------|
D|----------------------------|
A|----------------------------|
E|----------------------------|
I know Ill fail in

e|------------------|
B|------------------|
G|-------7-------7--|
D|-7-6-5-7-5-4-3-7--|
A|-7-6-5-5-5-4-3-5--|
E|-5-4-3---3-2-1----|
style

e|----------------------------------|
B|----------------------------------|
G|----------------------------------|
D|-4-4-4-4-4-4-4-4-5-5-5-5-5-5-5-5--|
A|-4-4-4-4-4-4-4-4-5-5-5-5-5-5-5-5--|
E|-2-2-2-2-2-2-2-2-3-3-3-3-3-3-3-3--|
I long to touch your genius hands

e|----------------------------|
B|-3--3--3--3-3-3--3--3--3-3--| x6
G|----------------------------|
D|----------------------------|
A|----------------------------|
E|----------------------------|
Oh!

e|----------------------------|
B|-3--3--3--3-3-3--3--3--3-3--|
G|----------------------------|
D|----------------------------|
A|----------------------------|
E|----------------------------|
 |                            |
e|----------------------------|
B|----------------------------|
G|-10-9-8-5-10-9-8b-5---------|
D|----------------------------|
A|----------------------------|
E|----------------------------|
I am growing now
As I watch you fade
Now I know what you know
And Ill break the chains that you

e|------------------|
B|------------------|
G|-------7-------7--|
D|-7-6-5-7-5-4-3-7--|
A|-7-6-5-5-5-4-3-5--|
E|-5-4-3---3-2-1----|
Have made

e|----------------------------|
B|-3--3--3--3-3-3--3--3--3-3--|
G|----------------------------|
D|----------------------------|
A|----------------------------|
E|----------------------------|
 |                            |
e|----------------------------|
B|----------------------------|
G|-12-12-12-12-12-10-9--------|
D|----------------------------|
A|----------------------------|
E|----------------------------|
This chain you made for me

e|------------------|
B|------------------|
G|-------7-------7--|
D|-7-6-5-7-5-4-3-7--|
A|-7-6-5-5-5-4-3-5--|
E|-5-4-3---3-2-1----|
Yeah! Yeah! Yeah!

e|----------------------------|
B|-3--3--3--3-3-3--3--3--3-3--|
G|----------------------------|
D|----------------------------|
A|----------------------------|
E|----------------------------|
 |                            |
e|----------------------------|
B|----------------------------|
G|-12-12-12-12-12-10-9--------|
D|----------------------------|
A|----------------------------|
E|----------------------------|
I will pull you

e|------------------|
B|------------------|
G|-------7-------7--|
D|-7-6-5-7-5-4-3-7--|
A|-7-6-5-5-5-4-3-5--|
E|-5-4-3---3-2-1----|
Down

e|----------------------------|
B|-3--3--3--3-3-3--3--3--3-3--|
G|----------------------------|
D|----------------------------|
A|----------------------------|
E|----------------------------|
 |                            |
e|----------------------------|
B|----------------------------|
G|-12-12-12-12-12-10-9--------|
D|----------------------------|
A|----------------------------|
E|----------------------------|
I know Ill fail in

e|------------------|
B|------------------|
G|-------7-------7--|
D|-7-6-5-7-5-4-3-7--|
A|-7-6-5-5-5-4-3-5--|
E|-5-4-3---3-2-1----|
Style

e|----------------------------------|
B|----------------------------------|
G|----------------------------------|
D|-4-4-4-4-4-4-4-4-5-5-5-5-5-5-5-5--|
A|-4-4-4-4-4-4-4-4-5-5-5-5-5-5-5-5--|
E|-2-2-2-2-2-2-2-2-3-3-3-3-3-3-3-3--|
I will I swear OOHWOAHOOHWOAHOOHWOAH

e|----------------------------------|
B|----------------------------------|
G|----------------------------------|
D|-4-4-4-4-4-4-4-4-5-5-5-5-5-7-7-7--|
A|-4-4-4-4-4-4-4-4-5-5-5-5-5-7-7-7--|
E|-2-2-2-2-2-2-2-2-3-3-3-3-3-5-5-5--|
I wanna shake your genius

e|----------------------------|
B|-3--3--3--3-3-3--3--3--3-3--|
G|----------------------------|
D|----------------------------|
A|----------------------------|
E|----------------------------|
Hand
Your genius hand
Hey! Hey! Hey! Hey! Hey!

e|----------------------------|
B|-3--3--3--3-3-3--3--3--3-3--|
G|----------------------------|
D|----------------------------|
A|----------------------------|
E|----------------------------|
 |                            |
e|----------------------------|
B|----------------------------|
G|-10-9-8-5-10-9-8b-5---------|
D|----------------------------|
A|----------------------------|
E|----------------------------|
Your genius hand
Get up! Get up! For

e|------------------|
B|------------------|
G|-------7-------7--|
D|-7-6-5-7-5-4-3-7--|
A|-7-6-5-5-5-4-3-5--|
E|-5-4-3---3-2-1----|
You

e|----------------------|
B|-11-11-11-11-11-9-8---|
G|----------------------|
D|----------------------|
A|----------------------|
E|----------------------|
 |                      |
e|----------------------|
B|----------------------|
G|-12-12-12-12-12-10-9--|
D|----------------------|
A|----------------------|
E|----------------------|

e|------------------|
B|------------------|
G|-------7-------7--|
D|-7-6-5-7-5-4-3-7--|
A|-7-6-5-5-5-4-3-5--|
E|-5-4-3---3-2-1----|

e|----------------------|
B|-11-11-11-11-11-9-8---|
G|----------------------|
D|----------------------|
A|----------------------|
E|----------------------|
 |                      |
e|----------------------|
B|----------------------|
G|-12-12-12-12-12-10-9--|
D|----------------------|
A|----------------------|
E|----------------------|
Oh! No!

e|------------------|
B|------------------|
G|-------7-------7--|
D|-7-6-5-7-5-4-3-7--|
A|-7-6-5-5-5-4-3-5--|
E|-5-4-3---3-2-1----|

e|----------------------|
B|-11-11-11-11-11-9-8---| Hold last note
G|----------------------|
D|----------------------|
A|----------------------|
E|----------------------|
 |                      |
e|----------------------|
B|----------------------|
G|-12-12-12-12-12-10-9--|
D|----------------------|
A|----------------------|
E|----------------------|

e|------------------------------------|
B|------------------------------------|
G|-------7-------7-------7-------7----|
D|-7-6-5-7-7-6-5-7-7-6-5-7-5-4-3-7-5--|
A|-7-6-5-5-7-6-5-5-7-6-5-5-5-4-3-5-5--|
E|-5-4-3---5-4-3---5-4-3---3-2-1---3--|

e|-------------------|
B|-5-3-3-3-\3-1-0----|
G|-----0-0--------2--|Let Notes Fade Out
D|-----0-------------|
A|-------------------|
E|-------------------|

| /  slide up
| \  slide down
| b  bend
| x  Mute note
| *  start w/vol completely down,pluck,then grad turn vol back up
============================================================================
PLEASE RATE!
Suggest correction
Give kudos to tab author, rate the tab!
1 2 3 4 5
comments
print report bad tab
guest
You may want to rate the tab now too:
select rating
Wanna post a correction for this tab? Suggest correction