Oops, an error
Loading. Please wait.

Sunday Bloody Sunday tab

version 3
version 3

Whole song

Interactive

133 views 1 this week
no commentswrite comment
1 2 3 4 5
3 more votes to show rating
add to favorites
×
Save as Personal and add changes to this tab that will be seen only by you. Learn more ›
×
You can save this tab as Personal to edit and correct it or add notes. All changes will be seen only by you. Learn more »
launch autoscroll
font size
0
reset
how to read this tab
guitar tuner
edit
Autoscroll
slow
fast
+/-
esc
set tempo
stop
Sunday bloody Sunday by Evergreen terrace its almost the same as the one by u2 the only 
is it is played faster. You want to plagiarize please do so this song can be perfected. 
think the repetition is a bit off but you can figure it out for your self

From Larynx

intro
   Bm     D        G6               Bm         D       G6
e-----2--------2--------0--------0--------2--------2--------0--------0-----|
b---3---3----3---3----3---3----3---3----3---3----3---3----3---3----3---3---|
g-4-------2---------0-------0--------4---------2--------0-------0--------4-|
d--------------------------------------------------------------------------|
a--------------------------------------------------------------------------|
e--------------------------------------------------------------------------|
Bm                   D                     G6
e-----2--------2--------0--------0--------2--------2--------0--------0-----|
b---3---3----3---3----3---3----3---3----3---3----3---3----3---3----3---3---|
g---------2---------0-------0--------4---------2--------0-------0--------4-|
d--------------------------------------------------------------------------|
a--------------------------------------------------------------------------|
e--------------------------------------------------------------------------|


  Bm               D                  G6
e-----2--------2--------0--------0--------2--------2--------0--------0-----|
b---3---3----3---3----3---3----3---3----3---3----3---3----3---3----3---3---|
g---------2---------0-------0--------4---------2--------0-------0----------|
d--------------------------------------------------------------------------|
a--------------------------------------------------------------------------|
e--------------------------------------------------------------------------|

[Verse 1]

   D                               Em                       D
e--2--------2--2--2--2--2--2---0-------0----------0------------2---------2-|
b--3--------3--3--3--3--3--3---0-------0----------0------------3---------3-|
g--2--------2--2--2--2--2--2---0-------0----------0------------2---------2-|
d--0--------0--0--0--0--0--0---2-------2----------2------------0---------0-|
a------------------------------2-------2----------2------------------------|
e------------------------------0-------0----------0------------------------|


   Em
e--0--------0------------------0-----0--0--0--0--0-------0--0--0--0--0--0--|
b--0--------0------------------0-----0--0--0--0--0-------0--0--0--0--0--0--|
g--0--------0------------------0-----0--0--0--0--0-------0--0--0--0--0--0--|
d--2--------2------------------2-----2--2--2--2--2-------2--2--2--2--2--2--|
a--2--------2------------------2-----2--2--2--2--2-------2--2--2--2--2--2--|
e--0--------0------------------0-----0--0--0--0--0-------0--0--0--0--0--0--|

[Rhy. Fig 1 w/slight dist.]

   B5             D5                G
e--------------------------------------------------------------------------|
b-----------------------------------12-12-12-12-12------12-12-12-12-12-----|
g--4-4-4-4-4------7-7-7-7-7---------12-12-12-12-12------12-12-12-12-12-----|
d--4-4-4-4-4------7-7-7-7-7---------12-12-12-12-12------12-12-12-12-12-----|
a--2-2-2-2-2------5-5-5-5-5---------10-10-10-10-10------10-10-10-10-10-----|
e--------------------------------------------------------------------------|

   B5            G                     B5                 D5
e--------------------------------------------------------------------------|
b-----------------------------------12-12-12-12-12------12-12-12-12-12-----|
g--4-4-4-4-4------7-7-7-7-7---------12-12-12-12-12------12-12-12-12-12-----|
d--4-4-4-4-4------7-7-7-7-7---------12-12-12-12-12------12-12-12-12-12-----|
a--2-2-2-2-2------5-5-5-5-5---------10-10-10-10-10------10-10-10-10-10-----|
e--------------------------------------------------------------------------|

   B5             D5                   G
e--------------------------------------------------------------------------|
b-----------------------------------12-12-12-12-12------12-12-12-12-12-----|
g--4-4-4-4-4------7-7-7-7-7---------12-12-12-12-12------12-12-12-12-12-----|
d--4-4-4-4-4------7-7-7-7-7---------12-12-12-12-12------12-12-12-12-12-----|
a--2-2-2-2-2------5-5-5-5-5---------10-10-10-10-10------10-10-10-10-10-----|
e--------------------------------------------------------------------------|


 Bm     D        G6               Bm         D       G6
e-----2--------2--------0--------0--------2--------2--------0--------0-----|
b---3---3----3---3----3---3----3---3----3---3----3---3----3---3----3---3---|
g-4-------2---------0-------0--------4---------2--------0-------0--------4-|
d--------------------------------------------------------------------------|
a--------------------------------------------------------------------------|
e--------------------------------------------------------------------------|

                                       [Chorus]
   Bm     D        G6               Bm         D       G6
e-----2--------2--------0--------0--|-----2--------2--------0--------0-----|
b---3---3----3---3----3---3----3---3|---3---3----3---3----3---3----3---3---|
g---------2---------0-------0-------|4---------2--------0-------0--------4-|
d-----------------------------------|--------------------------------------|
a-----------------------------------|--------------------------------------|
e-----------------------------------|--------------------------------------|
Bm    D        G6                  [Harmonics]       w/bar......
e-----2--------2--------0--------0---|-------------------------------------|
b---3---3----3---3----3---3----3---3-|------------------------------(7)----|
g---------2---------0-------0--------|---------(7)-------(5)---------------|
d------------------------------------|----(7)------------------------------|
a------------------------------------|-------------------------------------|
e------------------------------------|-------------------------------------|

e--------------------------------------------------------------------------|
b-------------------------------(7)----------------------------------------|
g---------(7)-------(5)-------------(7)-----------x-x-x-x-x-x-x------------|
d----(7)------------------------------------------x-x-x-x-x-x-x------------|
a-------------------------------------------------x-x-x-x-x-x-x------------|
e--------------------------------------------------------------------------|

   B5             D5                   G
e--------------------------------------------------------------------------|
b-----------------------------------12-12-12-12-12------12-12-12-12-12-----|
g--4-4-4-4-4------7-7-7-7-7---------12-12-12-12-12------12-12-12-12-12-----|
d--4-4-4-4-4------7-7-7-7-7---------12-12-12-12-12------12-12-12-12-12-----|
a--2-2-2-2-2------5-5-5-5-5---------10-10-10-10-10------10-10-10-10-10-----|
e--------------------------------------------------------------------------|

   B5             D5                   G
e--------------------------------------------------------------------------|
b-----------------------------------12-12-12-12-12------12-12-12-12-12-----|
g--4-4-4-4-4------7-7-7-7-7---------12-12-12-12-12------12-12-12-12-12-----|
d--4-4-4-4-4------7-7-7-7-7---------12-12-12-12-12------12-12-12-12-12-----|
a--2-2-2-2-2------5-5-5-5-5---------10-10-10-10-10------10-10-10-10-10-----|
e--------------------------------------------------------------------------|

 B5             D5                   G
e--------------------------------------------------------------------------|
b-----------------------------------12-12-12-12-12------12-12-12-12-12-----|
g--4-4-4-4-4------7-7-7-7-7---------12-12-12-12-12------12-12-12-12-12-----|
d--4-4-4-4-4------7-7-7-7-7---------12-12-12-12-12------12-12-12-12-12-----|
a--2-2-2-2-2------5-5-5-5-5---------10-10-10-10-10------10-10-10-10-10-----|
e--------------------------------------------------------------------------|

[Riff A]

   Bm     D        G6               Bm         D       G6
e-----2--------2--------0--------0--------2--------2--------0--------0-----|
b---3---3----3---3----3---3----3---3----3---3----3---3----3---3----3---3---|
g-4-------2---------0-------0--------4---------2--------0-------0----------|
d--------------------------------------------------------------------------|
a--------------------------------------------------------------------------|
e--------------------------------------------------------------------------|
[Chorus]
   Bm     D        G6               Bm         D       G6
e-----2--------2--------0--------0--|-----2--------2--------0--------0-----|
b---3---3----3---3----3---3----3---3|---3---3----3---3----3---3----3---3---|
g-4-------2---------0-------0-------|4---------2--------0-------0----------|
d-----------------------------------|--------------------------------------|
a-----------------------------------|--------------------------------------|
e-----------------------------------|--------------------------------------|
D
e-----2--------2--------0--------0------|------2---------------------------|
b---3---3----3---3----3---3----3---3----|------3---------------------------|
g-4-------2---------0-------0-----------|------2---------------------------|
d---------------------------------------|------0---------------------------|
a---------------------------------------|----------------------------------|
e---------------------------------------|----------------------------------|

    Em                             D
e---0------------------------------2------------0--------------------------|
b---0------------------------------3------------0--------------------------|
g---0------------------------------2------------0--------------------------|
d---2------------------------------0------------2--------------------------|
a---2-------------------------------------------2--------------------------|
e---0-------------------------------------------0--------------------------|
-

[Rhy.Fig 1]

   B5             D5                   G
e--------------------------------------------------------------------------|
b-----------------------------------12-12-12-12-12------12-12-12-12-12-----|
g--4-4-4-4-4------7-7-7-7-7---------12-12-12-12-12------12-12-12-12-12-----|
d--4-4-4-4-4------7-7-7-7-7---------12-12-12-12-12------12-12-12-12-12-----|
a--2-2-2-2-2------5-5-5-5-5---------10-10-10-10-10------10-10-10-10-10-----|
e--------------------------------------------------------------------------|
 night                              we can  be  as  one   tonight!

   B5             D5                   G
e--------------------------------------------------------------------------|
b-----------------------------------12-12-12-12-12------12-12-12-12-12-----|
g--4-4-4-4-4------7-7-7-7-7---------12-12-12-12-12------12-12-12-12-12-----|
d--4-4-4-4-4------7-7-7-7-7---------12-12-12-12-12------12-12-12-12-12-----|
a--2-2-2-2-2------5-5-5-5-5---------10-10-10-10-10------10-10-10-10-10-----|
e--------------------------------------------------------------------------|

   B5             D5                   G
e--------------------------------------------------------------------------|
b-----------------------------------12-12-12-12-12------12-12-12-12-12-----|
g--4-4-4-4-4------7-7-7-7-7---------12-12-12-12-12------12-12-12-12-12-----|
d--4-4-4-4-4------7-7-7-7-7---------12-12-12-12-12------12-12-12-12-12-----|
a--2-2-2-2-2------5-5-5-5-5---------10-10-10-10-10------10-10-10-10-10-----|
e--------------------------------------------------------------------------|

   B5             D5                   G
e--------------------------------------------------------------------------|
b-----------------------------------12-12-12-12-12------12-12-12-12-12-----|
g--4-4-4-4-4------7-7-7-7-7---------12-12-12-12-12------12-12-12-12-12-----|
d--4-4-4-4-4------7-7-7-7-7---------12-12-12-12-12------12-12-12-12-12-----|
a--2-2-2-2-2------5-5-5-5-5---------10-10-10-10-10------10-10-10-10-10-----|
e--------------------------------------------------------------------------|

[Guitar Solo]

  (B5)               (D5)               (G)
e--12p10-10-10-12-12-12p10-10-10-------------------------------------------|
b---0-----0--0--0--0--0-----0--0--12-12-12p10-10-10--12-12-12p10-10-10-----|
g----------------------------------0--0--0-----0--0---0--0--0-----0--0-----|
d--------------------------------------------------------------------------|
a--------------------------------------------------------------------------|
e--------------------------------------------------------------------------|

       (B5)              (D5)                (G)
e-12-12-12p10-10-10-12-12-12p10-10-10--------------------------------------|
b--0--0--0-----0--0--0--0--0-----0--0--12-12-12p10-10-10-12-12-12p10-10-10-|
g---------------------------------------0--0--0-----0--0--0--0--0-----0--0-|
d--------------------------------------------------------------------------|
a--------------------------------------------------------------------------|
e--------------------------------------------------------------------------|

[]=tricky spot

  (B5)                (D5)                (G)
e--0--0--0---0--0---0-0-0---0-0-0---0-0-0--0--0-0---0-0-0---0--0--0-0-0----|
b-10-10-10---8--8---7-7-7---5-5-5---3-3-3-[5]-3-3---2-2-2--[3]-2--0-0-0----|
g--------------------------------------------------------------------------|
d--------------------------------------------------------------------------|
a--------------------------------------------------------------------------|
e--------------------------------------------------------------------------|

 (B5)       (D5)        (G)                                            (D5)
e-0-0-0-0--0-0--0-0-0--0-0---0--0--0---0--0--0---0--0--0---0---0---0---0---|
b-0-3-3-3--5-5--7-7-7--8-8--10-10-10--12-12-12--15-15-15--14--10--12--12---|
g--------------------------------------------------------------------------|
d--------------------------------------------------------------------------|
a--------------------------------------------------------------------------|
e--------------------------------------------------------------------------|

                           B5        D5            G
   (G)           [Scratching, listen for how it's played]...................
e---0----------------------------------------------------------------------|
b-(12)---------------------------------------------------------------------|
g--------------------------------------------------------------------------|
d--------------------------------------------------------------------------|
a--------------------------------------------------------------------------|
e--------------------------------------------------------------------------|

   B5         D5      G                                    B5     D5
 ..........................................................................
e--------------------------------------------------------------------------|
b--------------------------------------------------------------------------|
g--------------------------------------------------------------------------|
d--------------------------------------------------------------------------|
a--------------------------------------------------------------------------|
e--------------------------------------------------------------------------|

  G                           B5                 D5
 .........................................................................
e--------------------------------------------------------------------------|
b--------------------------------------------------------------------------|
g--------------------------------------------------------------------------|
d--------------------------------------------------------------------------|
a--------------------------------------------------------------------------|
e--------------------------------------------------------------------------|

   G                       B5                D5                    G
 ..........................................................[Scratching Ends]
e--------------------------------------------------------------------------|
b--------------------------------------------------------------------------|
g--------------------------------------------------------------------------|
d--------------------------------------------------------------------------|
a--------------------------------------------------------------------------|
e--------------------------------------------------------------------------|

 [Harmonics]

e--------------------------------------------------------------------------|
b---------------------------------------------(7)--------------------------|
g---(7)-----------------(5)--------------------------(7)-------------------|
d--------(7)---------------------------------------------------------------|
a--------------------------------------------------------------------------|
e--------------------------------------------------------------------------|


e--------------------------------------------------------------------------|
b------------------------------------------(7)-----------------------------|
g--------(7)--------------(5)--------------------7)------------------------|
d---(7)--------------------------------------------------------------------|
a--------------------------------------------------------------------------|
e--------------------------------------------------------------------------|

e--------------------------------------------------------------------------|
b------------------------------------------------------(7)-----------------|
g---(7)---------------------(5)-----------------------------(7)------------|
d--------(7)---------------------(5)---------------------------------------|
a--------------------------------------------------------------------------|
e--------------------------------------------------------------------------|

e--------------------------------------------------------------------------|
b-------------------------------------------(7)----------------------------|
g---------------------(7)----------(5)-----------(7)------x-x-x-x-x-x------|
d----------------(7)--------------------------------------x-x-x-x-x-x------|
a---------------------------------------------------------x-x-x-x-x-x------|
e--------------------------------------------------------------------------|


   B5             D5                   G
e--------------------------------------------------------------------------|
b-----------------------------------12-12-12-12-12------12-12-12-12-12-----|
g--4-4-4-4-4------7-7-7-7-7---------12-12-12-12-12------12-12-12-12-12-----|
d--4-4-4-4-4------7-7-7-7-7---------12-12-12-12-12------12-12-12-12-12-----|
a--2-2-2-2-2------5-5-5-5-5---------10-10-10-10-10------10-10-10-10-10-----|
e--------------------------------------------------------------------------|

   B5             D5                   G
e--------------------------------------------------------------------------|
b-----------------------------------12-12-12-12-12------12-12-12-12-12-----|
g--4-4-4-4-4------7-7-7-7-7---------12-12-12-12-12------12-12-12-12-12-----|
d--4-4-4-4-4------7-7-7-7-7---------12-12-12-12-12------12-12-12-12-12-----|
a--2-2-2-2-2------5-5-5-5-5---------10-10-10-10-10------10-10-10-10-10-----|
e--------------------------------------------------------------------------|


   B5             D5                   G
e----------------------------------------------------------------------------|
b-----------------------------------12-12-12-12-12------12-12-12-12-12-------|
g--4-4-4-4-4------7-7-7-7-7---------12-12-12-12-12------12-12-12-12-12-------|
d--4-4-4-4-4------7-7-7-7-7---------12-12-12-12-12------12-12-12-12-12-------|
a--2-2-2-2-2------5-5-5-5-5---------10-10-10-10-10------10-10-10-10-10-------|
e----------------------------------------------------------------------------|

   B5             D5                   G
e--------------------------------------------------------------------------|
b-----------------------------------12-12-12-12-12------12-12-12-12-12-----|
g--4-4-4-4-4------7-7-7-7-7---------12-12-12-12-12------12-12-12-12-12-----|
d--4-4-4-4-4------7-7-7-7-7---------12-12-12-12-12------12-12-12-12-12-----|
a--2-2-2-2-2------5-5-5-5-5---------10-10-10-10-10------10-10-10-10-10-----|
e--------------------------------------------------------------------------|
B5             D5                   G
e--------------------------------------------------------------------------|
b-----------------------------------12-12-12-12-12------12-12-12-12-12-----|
g--4-4-4-4-4------7-7-7-7-7---------12-12-12-12-12------12-12-12-12-12-----|
d--4-4-4-4-4------7-7-7-7-7---------12-12-12-12-12------12-12-12-12-12-----|
a--2-2-2-2-2------5-5-5-5-5---------10-10-10-10-10------10-10-10-10-10-----|
e--------------------------------------------------------------------------|

   B5             D5                   G
e--------------------------------------------------------------------------|
b-----------------------------------12-12-12-12-12------12-12-12-12-12-----|
g--4-4-4-4-4------7-7-7-7-7---------12-12-12-12-12------12-12-12-12-12-----|
d--4-4-4-4-4------7-7-7-7-7---------12-12-12-12-12------12-12-12-12-12-----|
a--2-2-2-2-2------5-5-5-5-5---------10-10-10-10-10------10-10-10-10-10-----|
e--------------------------------------------------------------------------|

   B5             D5                   G
e--------------------------------------------------------------------------|
b-----------------------------------12-12-12-12-12------12-12-12-12-12-----|
g--4-4-4-4-4------7-7-7-7-7---------12-12-12-12-12------12-12-12-12-12-----|
d--4-4-4-4-4------7-7-7-7-7---------12-12-12-12-12------12-12-12-12-12-----|
a--2-2-2-2-2------5-5-5-5-5---------10-10-10-10-10------10-10-10-10-10-----|
e--------------------------------------------------------------------------|

   B5             D5                   G
e--------------------------------------------------------------------------|
b-----------------------------------12-12-12-12-12------12-12-12-12-12-----|
g--4-4-4-4-4------7-7-7-7-7---------12-12-12-12-12------12-12-12-12-12-----|
d--4-4-4-4-4------7-7-7-7-7---------12-12-12-12-12------12-12-12-12-12-----|
a--2-2-2-2-2------5-5-5-5-5---------10-10-10-10-10------10-10-10-10-10-----|
e--------------------------------------------------------------------------|


     B5             D5                   G
e--------------------------------------------------------------------------|
b-----------------------------------12-12-12-12-12------12-12-12-12-12-----|
g--4-4-4-4-4------7-7-7-7-7---------12-12-12-12-12------12-12-12-12-12-----|
d--4-4-4-4-4------7-7-7-7-7---------12-12-12-12-12------12-12-12-12-12-----|
a--2-2-2-2-2------5-5-5-5-5---------10-10-10-10-10------10-10-10-10-10-----|
e--------------------------------------------------------------------------|


   B5             D5                   G
e--------------------------------------------------------------------------|
b-----------------------------------12-12-12-12-12------12-12-12-12-12-----|
g--4-4-4-4-4------7-7-7-7-7---------12-12-12-12-12------12-12-12-12-12-----|
d--4-4-4-4-4------7-7-7-7-7---------12-12-12-12-12------12-12-12-12-12-----|
a--2-2-2-2-2------5-5-5-5-5---------10-10-10-10-10------10-10-10-10-10-----|
e--------------------------------------------------------------------------|


Tune down 1/2 step
1=Eb 4=Db                        ()= harmonic
2=Bb 5=Ab                         p= pull off
3=Gb 6=Eb                         x= deadnote

            
            
Suggest correction
Creating personal tab
Creating personal tab
You can edit any tab online and save it as your Personal.

You can edit, replace or remove any tab part or add personal notes – all changes will be seen only by you.

Personal tabs can be accessed anytime from any device, even offline.
Learn more »
Give kudos to tab author, rate the tab!
1 2 3 4 5
comments
print report bad tab
guest
You may want to rate the tab now too:
select rating
Wanna post a correction for this tab? Suggest correction