Oops, an error
Loading. Please wait.

Im Sorry Tab

version 1
version 1

Intro

Interactive

4,403 views 3 this week
1 commentread comment
1 2 3 4 5
please rate
add to favorites
launch autoscroll
font size
0
reset
how to read this tab
guitar tuner
Autoscroll
slow
fast
+/-
esc
set tempo
stop
Help us to improve Ultimate-Guitar.com Take our survey!
×
Difficulty
novice
   4/4
    Gtr I
    Q  E Q  E E E E E E E +H
||----------------------------------|
||o-4----4----4---------------------|
||--0--0----0---0-------8-(8)-------|
||--1-------------5-6-5-------------|
||o---------------------------------|
||----------------------------------|
|
|   Gtr II
|   W             H        E  E E E
||----------------------------------|
||o---------------------------------|
||----------------------------------|
||------------------------------5---|
||o---------------------------6---6-|
||-------------------------4--------|


 4/4
  Gtr I
   Q   E Q  E E E E E E E +H
|-----------------------------------|
|--4-----4----4---------------------|
|------0----0---0-------8-(8)-------|
|-----------------5-6-5-------------|
|-----------------------------------|
|-----------------------------------|
|
| Gtr II
| +W              H        E  E E E
|-----------------------------------|
|-----------------------------------|
|-----------------------------------|
|-------------------------------8-5-|
|-(6)-------------------------6-----|
|--------------------------4--------|


 4/4
  Gtr I
   Q   E Q  E E E E E E E +H
|------------------------------------|
|--4-----4----4----------------------|
|------0----0---0-------8-(8)--------|
|-----------------5-6-5--------------|
|------------------------------------|
|------------------------------------|
|
| Gtr II
| +W              H        E  E E  E
|------------------------------------|
|------------------------------------|
|------------------------------------|
|-(5)---------------------------8-10-|
|-----------------------------6------|
|--------------------------4---------|


 4/4
  Gtr I
    Q   E Q  E E E Q  E Q  E E E  4x
|---------------------------------||
|---4-----4----4---4----4----4---o||
|-------0----0---0----0----0---0--||
|---------------------------------||
|--------------------------------o||
|---------------------------------||
|
| Gtr II
|  +W              Q  E           4x
|---------------------------------||
|--------------------------------o||
|---------------------------------||
|-(10)----------------------------||
|--------------------------------o||
|---------------------------------||
Suggest correction
Give kudos to tab author, rate the tab!
1 2 3 4 5
comments
print report bad tab
1 comment total.
0 reply
SaucyRebel 72 wrote on July 14 2006, 05:44 pm

The Intro Actually goes like this in standard tuning:
Gtr I
Q E Q E E E E E E E
||----------------------------------|
||o-4----4----4---------4-----------|
||--5--5----5---5-------------------|
||----------------5-6-5-------------|
||o---------------------------------|
||----------------------------------|

alternatively, you can play the 8th fret on the G string, like this:
Gtr I
Q E Q E E E E E E E
||----------------------------------|
||o-4----4----4---------------------|
||--5--5----5---5-------8-----------|
||----------------5-6-5-------------|
||o---------------------------------|
||----------------------------------|

I just find its easier and sounds better if you play the 4th fret, B string.

guest
You may want to rate the tab now too:
select rating
Wanna post a correction for this tab? Suggest correction