Oops, an error
Loading. Please wait.

The Great Deceiver Bass Tab

version 1
version 1

Whole song

Interactive

446 views 1 this week
no commentswrite comment
1 2 3 4 5
please rate
add to favorites
launch autoscroll
font size
0
reset
guitar tuner
Autoscroll
slow
fast
+/-
esc
set tempo
stop
Help us to improve Ultimate-Guitar.com Take our survey!
×
#----------------------------------PLEASE NOTE---------------------------------#
#This file is the author's own work and represents their interpretation of the #
#song. You may only use this file for private study, scholarship, or research. #
#------------------------------------------------------------------------------#

THE GREAT DECEIVER (Bassline)
As recorded by Evergrey
(From the 2003 Album RECREATION DAY)

Transcribed by yanndc@hotmail.com
	

Words and Music by Evergrey

Gtr I (B E A D G) - 'Picked Bass'

   Intro + Solo
    Q=176
   4/4
    Gtr I
    |-3-| |-3-| |-3-| |-3-|
    E E E E E E E E E E E E
||--------------------------|
||o-------------------------|
||--------------------------|
||o-------------------------|
||--3-3-3-3-3-3-3-3-3-3-3-3-|


  |-3-| |-3-| |-3-| |-3-|   |-3-| |-3-| |-3-| |-3-|
  E E E E E E E E E E E E   E E E E E E E E E E E E
|-------------------------|--------------------------|
|-------------------------|--------------------------|
|-------------------------|--------------------------|
|-----------------------6-|-6-6-6-6-6-6-6-6-6-6-6-6--|
|-3-3-3-3-3-3-3-3-3-3-3---|--------------------------|


  |-3-| |-3-| |-3-| |-3-|   |-3-| |-3-| |-3-| |-3-|   |-3-| |-3-| |-3-| |-3-|
  E E E E E E E E E E E E   E E E E E E E E E E E E   E E E E E E E E E E E E
|-------------------------|-------------------------|--------------------------|
|-------------------------|-------------------------|--------------------------|
|-3-3-3-3-3-3-3-3-0-------|-------------------------|--------------------------|
|-------------------3-----|-------------------------|--------------------------|
|---------------------6-5-|-3-3-3-3-3-3-3-3-3-3-3-3-|-5-5-5-5-5-5-5-5-5-5-5-5--|


                           1.
  |-3-| |-3-| |-3-| |-3-|   |-3-| |-3-| |-3-| |-3-|
  E E E E E E E E E E E E   E E E E E E E E E E E E
|-------------------------|--------------------------||
|-------------------------|-------------------0-2-3-o||
|-------------------------|-------0-1-3-0-1-3--------||
|-------------------------|-3-5-6-------------------o||
|-6-6-6-6-6-6-6-6-6-6-6-6-|--------------------------||


  2.
                 To Coda
                 To Coda
  |-3-| |-3-| |-3-| |-3-|
  E E E E E E E E E E E E
|--------------------------|
|--------------------------|
|--------------------------|
|-6-6-6-6-6-6-8-8-8-8-8-8--|
|--------------------------|


   Verse
    |-3-| |-3-| |-3-| |-3-|
    E E E E E E E E E E E E
||--------------------------|
||o-------------------------|
||--------------------------|
||o-------------------------|
||--3-3-3-3-3-3-3-3-3-3-3-3-|


  |-3-| |-3-| |-3-| |-3-|   |-3-| |-3-| |-3-| |-3-|
  E E E E E E E E E E E E   E E E E E E E E E E E E
|-------------------------|---------------------------|
|-------------------------|---------------------------|
|-------------------------|---------------------------|
|-------------------------|---------------------------|
|-3-3-3-3-3-3-4-4-4-1-1-4-|-3-3-3-3-3-3-3-3-3-3-3-3---|


  |-3-| |-3-| |-3-| |-3-|   |-3-| |-3-| |-3-| |-3-|   |-3-| |-3-| |-3-| |-3-|
  E E E E E E E E E E E E   E E E E E E E E E E E E   E E E E E E E E E E E E
|-------------------------|-------------------------|-------------------------|
|-------------------------|-------------------------|-------------------------|
|-------------------------|-------------------------|-------------------------|
|-------------------------|-------------------------|-------------------------|
|-3-3-3-3-3-3-4-4-4-1-1-3-|-4-4-4-4-4-4-4-4-4-4-4-4-|-4-4-4-4-4-4-4-4-4-4-4-4-|


                                      D.C. al Coda
  |-3-| |-3-| |-3-| |-3-|   |-3-| |-3-| |-3-| |-3-|
  E E E E E E E E E E E E   E E E E E E E E E E E E
|-------------------------|--------------------------||
|-------------------------|-------------------------o||
|-3-3-3-0-0-0-------------|-------------------1-3-5--||
|-------------------------|-------------------------o||
|-------------1-1-1-3-3-3-|-4-4-4-3-3-3-1-1-1--------||


 Interlude
  Q=88
  &
  e S e e S e e S S S S   e S e e S e e S S S S
|-----------------------|-----------------------|
|-----------------------|-----------------------|
|-----------------------|-----------------------|
|-----------------------|-----------------------|
|-3-3-3-3-3-3-3-3-3-1-1-|-3-3-3-3-3-3-3-3-3-1-1-|


   E S e e S e e S S S S    E S e e S e e  Q
|------------------------|----------------------|
|------------------------|----------------------|
|-/6---------------------|-/3-------------/6\---|
|------------------------|----------------------|
|----4-4-4-4-4-4-4-4-3-3-|----1-1-1-1-1-1-------|


    E S e e S e e S S S S   e S e e S e e S S S S
||------------------------|-----------------------|
||o-----------------------|-----------------------|
||------------------------|-----------------------|
||o-----------------------|-----------------------|
||--3-3-3-3-3-3-3-3-3-1-1-|-3-3-3-3-3-3-3-3-3-1-1-|


                         D.C. al Dbl. Coda
   E S e e S e e S S S S    E S e e S e e  Q    3x
|------------------------|----------------------||
|------------------------|---------------------o||
|-/6---------------------|-/3-------------/6\---||
|------------------------|---------------------o||
|----4-4-4-4-4-4-4-4-3-3-|----1-1-1-1-1-1-------||


  &&
 1/4  4/4
  Q    S e S e e S e e S S S   e e S S E S E. S S E   e S e e S e e e S S
|----|-----------------------|----------------------|---------------------|
|----|-----------------------|----------------------|---------------------|
|----|-----------------------|----------------------|---------------------|
|----|-----------------------|----------------------|---------------------|
|----|---3-3-3-3-3-3-3-3-3-3-|-3-3-3-3---3----3-3---|-4-4-4-4-4-4-4-4-4-4-|


  S Q  e S S S S e S e   e e S S E e e e S S   e e S S e e e e e
|----------------------|---------------------|--------------------|
|----------------------|---------------------|--------------------|
|----------------------|---------------------|--------------------|
|----------------------|---------------------|--------------------|
|-1----1-1-1-1-1-1-1-1-|-3-3-3-3---3-3-3-3-3-|-3-3-3-3-3-3-3-3-3--|


  e e e e e e e S S   S E. S S E S S S S e e   S e S e e S e e S S S
|-------------------|------------------------|-----------------------|
|-------------------|------------------------|-----------------------|
|-------------------|------------------------|-----------------------|
|-------------------|------------------------|-----------------------|
|-4-4-4-4-4-4-4-4-4-|-1----1-1---1-1-1-1-1-1-|-3-3-3-3-3-3-3-3-3-3-3-|


  e e S S E S E. S S E   e S e e S e e e S S   S Q  e S S S S e S e
|----------------------|---------------------|----------------------|
|----------------------|---------------------|----------------------|
|----------------------|---------------------|----------------------|
|----------------------|---------------------|----------------------|
|-3-3-3-3---3----3-3---|-4-4-4-4-4-4-4-4-4-4-|-1----1-1-1-1-1-1-1-1-|


   E S e e S e e S S S S   e S e e S e e S S S S
|------------------------|-----------------------|
|------------------------|-----------------------|
|-/5---------------------|-----------------------|
|------------------------|-----------------------|
|----3-3-3-3-3-3-3-3-1-1-|-3-3-3-3-3-3-3-3-3-1-1-|


   Chorus + Outro Solo
    Q=176
    |-3-| |-3-| |-3-| |-3-|
    E E E E E E E E E E E E
||--------------------------|
||o-------------------------|
||--------------------------|
||o-------------------------|
||--3-3-3-3-3-3-3-3-3-3-3-3-|


  |-3-| |-3-| |-3-| |-3-|   |-3-| |-3-| |-3-| |-3-|
  E E E E E E E E E E E E   E E E E E E E E E E E E
|-------------------------|---------------------------|
|-------------------------|---------------------------|
|-------------------------|---------------------------|
|-----------------------6-|-6-6-6-6-6-6-6-6-6-6-6-6---|
|-3-3-3-3-3-3-3-3-3-3-3---|---------------------------|


  |-3-| |-3-| |-3-| |-3-|   |-3-| |-3-| |-3-| |-3-|   |-3-| |-3-| |-3-| |-3-|
  E E E E E E E E E E E E   E E E E E E E E E E E E   E E E E E E E E E E E E
|-------------------------|-------------------------|-------------------------|
|-------------------------|-------------------------|-------------------------|
|-3-3-3-3-3-3-3-3-0-------|-------------------------|-------------------------|
|-------------------3-----|-------------------------|-------------------------|
|---------------------6-5-|-3-3-3-3-3-3-3-3-3-3-3-3-|-5-5-5-5-5-5-5-5-5-5-5-5-|


  |-3-| |-3-| |-3-| |-3-|   |-3-| |-3-| |-3-| |-3-|   |-3-| |-3-| |-3-| |-3-|
  E E E E E E E E E E E E   E E E E E E E E E E E E   E E E E E E E E E E E E
|-------------------------|-------------------------|-------------------------|
|-------------------------|-------------------0-2-3-|-------------------------|
|-------------------------|-------0-1-3-0-1-3-------|-------------------------|
|-------------------------|-3-5-6-------------------|-------------------------|
|-6-6-6-6-6-6-6-6-6-6-6-6-|-------------------------|-3-3-3-3-3-3-3-3-3-3-3-3-|


  |-3-| |-3-| |-3-| |-3-|   |-3-| |-3-| |-3-| |-3-|   |-3-| |-3-| |-3-| |-3-|
  E E E E E E E E E E E E   E E E E E E E E E E E E   E E E E E E E E E E E E
|-------------------------|-------------------------|-------------------------|
|-------------------------|-------------------------|-------------------------|
|-------------------------|-------------------------|-3-3-3-3-3-3-3-3-0-------|
|-----------------------6-|-6-6-6-6-6-6-6-6-6-6-6-6-|-------------------3-----|
|-3-3-3-3-3-3-3-3-3-3-3---|-------------------------|---------------------6-5-|


  |-3-| |-3-| |-3-| |-3-|   |-3-| |-3-| |-3-| |-3-|
  E E E E E E E E E E E E   E E E E E E E E E E E E
|-------------------------|-------------------------|
|-------------------------|-------------------------|
|-------------------------|-------------------------|
|-------------------------|-------------------------|
|-3-3-3-3-3-3-3-3-3-3-3-3-|-5-5-5-5-5-5-5-5-5-5-5-5-|


  |-3-| |-3-| |-3-| |-3-|   |-3-| |-3-| |-3-| |-3-|
  E E E E E E E E E E E E   E E E E E E E E E E E E     3x
|-------------------------|-----------------------------||
|-------------------------|----------------------------o||
|-------------------------|-----------------------------||
|-------------------------|-6-6-6-6-6-6-8-8-8-8-8-8----o||
|-6-6-6-6-6-6-6-6-6-6-6-6-|-----------------------------||



Duration Legend
---------------
W - whole; H - half; Q - quarter; E - 8th; S - 16th; T - 32nd; X - 64th; a - acciaccatura
+ - note tied to previous; . - note dotted; .. - note double dotted
Uncapitalized letters represent notes that are staccato (1/2 duration)
Irregular groupings are notated above the duration line
Duration letters will always appear directly above the note/fret number it represents the
duration for.  Duration letters with no fret number below them represent rests.  Multi-
bar rests are notated in the form Wxn, where n is the number of bars to rest for.  Low
melody durations appear below the staff

Tablature Legend
----------------
 h   - hammer-on
 p   - pull-off
 b   - bend
 pb  - pre-bend
 r   - bend release (if no number after the r, then release immediately)
 /\  - slide into or out of (from/to "nowhere")
 s   - legato slide
 S   - shift slide
 - natural harmonic
[n]  - artificial harmonic
n(n) - tapped harmonic
 ~   - vibrato
 tr  - trill
 T   - tap
 TP  - trem. picking
 PM  - palm muting
\n/  - tremolo bar dip; n = amount to dip
 \n  - tremolo bar down
 n/  - tremolo bar up
/n\  - tremolo bar inverted dip
 =   - hold bend; also acts as connecting device for hammers/pulls
 <> - volume swell (louder/softer)
 x   - on rhythm slash represents muted slash
 o   - on rhythm slash represents single note slash

Misc Legend
-----------
 |  - bar
||  - double bar
||o - repeat start
o|| - repeat end
*|  - double bar (ending)
 :  - bar (freetime)
 $  - Segno
 &  - Coda
Tempo markers -  = BPM(8/16=s8/s16), where s8 = swing 8ths, s16 = swing 16ths

Suggest correction
Give kudos to tab author, rate the tab!
1 2 3 4 5
comments
print report bad tab
guest
You may want to rate the tab now too:
select rating
Wanna post a correction for this tab? Suggest correction