Oops, an error
Loading. Please wait.

Book Tab

1,739 views 1 this week
no commentswrite comment
1 2 3 4 5
please rate
add to favorites
launch autoscroll
font size
0
reset
how to read this tab
guitar tuner
Autoscroll
slow
fast
+/-
esc
set tempo
stop
Help us to improve Ultimate-Guitar.com Take our survey!
×
Everlast Book v1.0
By Drakez-
( vlad@emu-efnet.com )
Special Thanks to Tom Woodrum


Authors Notes:
IMPORTANT STUFF READ IT!
ONLY FOR HOT TO DEATH! h = pause for x amount of time(hold)

o
  = Repeats
o

> = Strum up
X = Mute
/ = Slide Up
\ = Slide Down
p = pull of
h = Hammer on(not for Hot to death)
~ = bend up down (fast till fade out)

 Dsus4       Dm        Fmaj7        Em/D        Esus4/D
xxo        xxo        xx   o      xxo          xxo
======     ======     ======      ======       ======
||||||     |||||O     ||||O|      ||||||       ||||||
|||O||     |||O||     |||O||      ||||||       ||||||
||||OO     ||||O|     ||O|||      |||||O       ||||||
||||||     ||||||     ||||||      |||O||       |||O||

  G         
  ooo  
======     
||||||     
|O||||    
O||||O 

  E        G       C        A
o   oo
======   ======  ======   ======
|||O||   ||||||  ||||||   ||||||
|OO|||   ||||||  ||||||   ||||||
||||||   OOOOOO  OOOOOO   ||||||
         |||O||  ||||||   ||||||
         |OO|||  ||OOO|   OOOOOO
                          |||O||
                          |OO|||


  G7       D7       F

======   ======   ======
||||||   ||||||   OOOOOO
||||||   ||||||   |||O||
OOOOOO   ||||||   |OO|||
|||O||   ||||||
|O||||   OOOOOO
         ||||||
         ||O|O|


Contents
----------
1. What it's Like
2. Ends(two versions)
3. Hot to Death
4. Today ( Watch me shine )
5. 7 Years
6. Get down



1. What it's Like
==================

    Dsus4        Dm                  Fmaj7        C

e|--------3------1-3p1------------|------0--(0)-0-----0-(0)-0------|
Play 
B|o-----3--------------3p(0)------|------1------1-----1-----1-----o|
this 3
G|----2---------------------------|----2--------------0------------|
times
D|o-0-----------------------------|--3------------2-2-------------o|
then go
A|--------------------------------|---------------3----------------|
on
E|--------------------------------|--------------------------------|

   Dsus4         Dm                  Fmaj7     C

e|-------3-------1-3p1------------|------0---0---------------------|
B|-----3--------------3p(0)-------|------1---1----1----------------|
G|---2----------------------------|----2---2------0----------------|
D|-0------------------------------|--3------------2----------------|
A|--------------------------------|------------3----3h0p3----------|
E|--------------------------------|--------------------------------|

            Fmaj7                   C              Dm
      >             >                     >        >           >
e|----1-1-X-0-------0-0-X---------|-------0-0-X-0--1---1h3p1---1---|
B|----3-3-X-1-------1-1-X---------|-------1-1-X-0--3---3-----3-3---|
G|----2-2-X-2-------2-2-X-0-------|-------0-0-X------2-------------|
D|-0--0-0-X-3-------3-3-X---------|-0p2---2-2-X------0-------------|
A|--------------------------------|-3-----3-3-X--------------------|
E|--------------------------------|--------------------------------|

               Fmaj7        C                    Dm
                                                             >
e|-(1)---1-1-X-0------0-0-X-0-----|-----0-0-X-0--1---1h3p1---1-----|Repeat
x3
B|o(3)---3-3-X-1------1-1-X-1-----|-1---1-1-X-0--3---3-----3-3----o|
G|-------2-2-X-2------2-2-X-0-----|-0---0-0-X-0----2---------------|
D|o----0-0-0-X-3------3-3-X-------|-2---2-2-X---------------------o|
A|--------------------------------|-3---3-3-X----------------------|
E|--------------------------------|--------------------------------|

         Fmaj7            C                           Dm
   >                >                                 > >       >
e|-1-1-X-0----------0-0-0-0-------|-X-0-0---0-0-X-0---1-1h3p1---1--|
B|-3-3-X-1----------1-1-1-1-------|-X-1-1---1-1-X-0---3-3-----3-3--|
G|-2-2-X-2----------2-2-2-0-------|-X-0-0---0-0-X------------------|
D|-0-0-X-3----------3-3-3---------|-X-3-3---3-3-X------------------|
A|--------------------------------|-X-2-2---2-2-X------------------|
E|--------------------------------|--------------------------------|

                Fmaj7               C             Dm
    >         >          >              >     >   >           >
e|-(1)--1-1-1-0-X-0-0--0-0-0-0----|-----0-0-X-0---1---1h3p1---1----|
B|-(3)--3-3-3-1-X-1-1--1-1-1-1----|-1---1-1-X-0---3---3-------3----|
G|--2---2-2-2-2-X---2--2-2-2-3----|-0---0-0-X-0-----2-------2-2----|
D|--0---0-0-0---X---3--3-3-3------|-2---2-2-X-------0-------0------|
A|--------------------------------|-3---3-3-X----------------------|
E|--------------------------------|--------------------------------|

   Dm           Fmaj7               C                Dm
        >              >     >        >     >     >  >   >       >
e|------1-1-1-X--------0-0-X-0----|-X-0-0---0-0-X-0--3---1h3p1---1-|
B|------3-3-3-X-1------1-1-X-1----|-X-1-1---1-1-X-0--1---------3-3-|
G|-2----2-2-2-X-2------2-2-X-0----|-X-0-0---0-0-X-0----------------|
D|-0----0-0-0-X-3------3-3-X------|-X---2---2-2-X------0-----------|
A|--------------------------------|-X---3---3-3-X------------------|
E|--------------------------------|--------------------------------|

                Fmaj7               C             Dm
        >     >        >                      >   >            >
e|------1-1-X-0-0------0-0-X-0----|-----0-0-X-0---1---1h3p1----1---|
B|------3-3-X-1-1------1-1-X-1----|-----1-1-X-0---3---3--------3---|
G|-2----2-2-X---2------2-2-X-0----|-0---0-0-X-------2-2--------2---|
D|-0----0-0-X---3------3-3-X------|-2---2-2-X-------0-0------------|
A|--------------------------------|-3---3-3-X----------------------|
E|--------------------------------|--------------------------------|

            Fmaj7                   C               Dm
        >   >       >                   >     >     >         >
e|------1---0-------0-X-----------|-----0-0-X-0-----1---1h3p1-1----|
B|------3---1-------1-X-1---------|-----1-1-X-0-----3---3-----3----|
G|-2----2-----------2-X-0---------|-0---0-0-X---------2------------|
D|-0----0-------3---3-X-----------|-2---2-2-X----------------------|
A|--------------------------------|-3---3-3-X----------------------|
E|--------------------------------|--------------------------------|

                Fmaj7               C
                         >              >
e|-(1)--1-1-1-1-X-0-0----0-X------|-----0-----0--------------------|
B|-(3)--3-3-3-3-X-1-1----1-X-1----|-1---1-----1---1----------------|
G|------2-2-2-2-X-2-2----2-X-0----|-0---0-0-0-0---0----------------|
D|------0-0-0-0-X---3----3-X------|-2---2-2-2---2-2----------------|
A|--------------------------------|-3---3-3-3---3---3-3h0p3--------|
E|--------------------------------|--------------------------------|

   Dm            Em/D               Dm           Em/D Esus4/D Em/D

e|-----1-----------3---X----------|-----1------1/3-5-3-------------|Figure
1 
B|-----3-3-----3/5-5-5-X----------|-------3-3--3/5-------X---------| 
G|---2-------2-2/4---4------------|-2-------2--2/4-------X---------|
D|-0-------0----------------------|-0-0----------------0-0---------|
A|---------0----------------------|--------------------------------|
E|--------------------------------|--------------------------------|

   Dm            Em/D               Dm

e|-----1-----------3--------------|-----1-----1-----1--------------|Figure
1
B|-----3-3---3-3/5-5-5---X--------|-------3---3-3-----3------------|Continued

G|-2-2---2---2-2/4---4-4-X--------|-2-2-----2-----2---2-2----------|
D|-0-------0----------------------|-0-0-----0-----0----------------|
A|--------------------------------|--------------------------------|
E|--------------------------------|--------------------------------|

    Dm           Fmaj7              C          Dm
    >          >     >                 >     > >           >

e|--1----1-1-1-0-X-0-0-0-0-0-0----|----0-0-X-0-1---1h3p1---1-------|Repeat
x4
B|o-3----3-3-3-1-X-1-1-1-1-1-1----|-1--1-1-X-0-3---3-------3------o| 
G|--2----2-2-2-2-X---2-2-2-2-3----|-0--0-0-X-0---2-------2-2-------|
D|o-0----0-0-0---X---3-3-3-3------|-2--2-2-X-----0-------0--------o|
A|--------------------------------|-3--3-3-X-----------------------|
E|--------------------------------|--------------------------------|
    Dm           Fmaj7              C          Dm
    >          >     >                 >     > >           >
e|--1----1-1-1-0-X-0-0-0-0-0-0----|----0-0-X-0-1---1h3p1---1-------|Repeat
x4
B|o-3----3-3-3-1-X-1-1-1-1-1-1----|-1--1-1-X-0-3---3-------3------o| 
G|--2----2-2-2-2-X---2-2-2-2-3----|-0--0-0-X-0---2-------2-2-------|
D|o-0----0-0-0---X---3-3-3-3------|-2--2-2-X-----0-------0--------o|
A|--------------------------------|-3--3-3-X-----------------------|
E|--------------------------------|--------------------------------|

    Dm           Fmaj7              C          Dm
    >          >     >                 >     > >           >
e|--1----1-1-1-0-X-0-0-0-0-0-0----|----0-0-X-0-1---1h3p1---1-------|Play
this
B|o-3----3-3-3-1-X-1-1-1-1-1-1----|-1--1-1-X-0-3---3-------3------o|3
times
G|--2----2-2-2-2-X---2-2-2-2-3----|-0--0-0-X-0---2-------2-2-------|then
next
D|o-0----0-0-0---X---3-3-3-3------|-2--2-2-X-----0-------0--------o|measure
A|--------------------------------|-3--3-3-X-----------------------|
E|--------------------------------|--------------------------------|

   C
         >     >   >
e|-------0-----0------------------|
B|-1-----1-----1---1--------------|
G|-0-----0-0-0-0---0--------------|
D|-2-----2-2-2---2-2--------------|
A|-3-----3-3-3---3---3-3p0h3------|
E|--------------------------------|

    Dsus4     Dm                    Fmaj7      
                                                             
e|--------3---1h3p1---------------|-----0-0-0-----0-0-0------------|Repeat
x4
B|o-----3-----------3h(0)---------|-----1---1-----1---0-----------o| 
G|----2---------------------------|---2-------2-2-0----------------|
D|o-0-----------------------------|-3---------3-------------------o|
A|--------------------------------|--------------------------------|
E|--------------------------------|--------------------------------|



(Play Figure 1)


    Dm           Fmaj7              C          Dm
    >          >     >                 >     > >           >
e|--1----1-1-1-0-X-0-0-0-0-0-0----|----0-0-X-0-1---1h3p1---1-------|Figure
2 
B|o-3----3-3-3-1-X-1-1-1-1-1-1----|-1--1-1-X-0-3---3-------3-------|Repeat
x4
G|--2----2-2-2-2-X---2-2-2-2-3----|-0--0-0-X-0---2-------2-2-------|   
     
D|o-0----0-0-0---X---3-3-3-3------|-2--2-2-X-----0-------0---------|   
   
A|--------------------------------|-3--3-3-X-----------------------|
E|--------------------------------|--------------------------------|


    Dm           Fmaj7              C          Dm
    >          >     >                 >     > >           >
e|--1----1-1-1-0-X-0-0-0-0-0-0----|----0-0-X-0-1---1h3p1---1-------|Figure
2 
B|--3----3-3-3-1-X-1-1-1-1-1-1----|-1--1-1-X-0-3---3-------3------o|Continued
G|--2----2-2-2-2-X---2-2-2-2-3----|-0--0-0-X-0---2-------2-2-------|   
     
D|--0----0-0-0---X---3-3-3-3------|-2--2-2-X-----0-------0--------o|   
   
A|--------------------------------|-3--3-3-X-----------------------|
E|--------------------------------|--------------------------------|


    Dm           Fmaj7              C          Dm
    >          >     >                 >     > >           >
e|--1----1-1-1-0-X-0-0-0-0-0-0----|----0-0-X-0-1---1h3p1---1-------|Play
this
B|o-3----3-3-3-1-X-1-1-1-1-1-1----|-1--1-1-X-0-3---3-------3------o|2
times
G|--2----2-2-2-2-X---2-2-2-2-3----|-0--0-0-X-0---2-------2-2-------|   
     
D|o-0----0-0-0---X---3-3-3-3------|-2--2-2-X-----0-------0--------o|   
    
A|--------------------------------|-3--3-3-X-----------------------|
E|--------------------------------|--------------------------------|

   C
         >     >   >
e|-------0-----0------------------|
B|-1-----1-----1---1--------------|
G|-0-----0-0-0-0---0--------------|
D|-2-----2-2-2---2-2--------------|
A|-3-----3-3-3---3---3-3h0p3------|
E|--------------------------------|


Outro (Fadeout on second time of playing it(Repeat x2))

   Dm                               Fmaj7           C

e|---1-----1----1-----------------|-----0-----0-----0--------------|
B|-----3-----3----3---------------|-------1-----1-----1------------| 
G|-------2-----2----2-------------|---2-----2-----2-----0----------|
D|-0------------------------------|-3------------------------------|
A|--------------------------------|--------------------------------|
E|--------------------------------|--------------------------------|

                                    Dm

e|-----0-----0---0----------------|-----1-----1-----3-1------------|
B|-------1-----1---1--------------|-------3-----3-------3----------| 
G|---0-----0---------0-0----------|---2-----2-----2----------------|
D|--------------------------------|-0------------------------------|
A|-3------------------------------|--------------------------------|
E|--------------------------------|--------------------------------|


2. Ends
========

(Play this at everytime he sings the lyrics at the
begining of the song)

   G                       Dm        C       G
           >   >   >   >     >   >   >   >     >           (Figure 1)
e|-3-3-3-3-3-3-3-3-3-3-X-X-1-1-1-1-|-X-X-0-0-3----------------------|
B|-0-0-0-0-0-0-0-0-0-0-X-X-3-3-3-3-|-X-X-1-1-0----------------------|
G|-0-0-0-0-0-0-0-0-0-0-X-X-2-2-2-2-|-X-X-0-0-0----------------------|
D|-0-0-0-0-0-0-0-0-0-0-X-X-0-0-0-0-|-X-X-2-2-0----------------------|
A|-2-2-2-2-2-2-2-2-2-2-X-X---------|-X-X-3-3-2----------------------| 
E|-3-3-3-3-3-3-3-3-3-3-X-X---------|---------3-3--------------------|

(This repeats through-out the whole song)
   G                       Dm        Fmaj7 C       G
   >   >   >   >   >   >     >   >     >   >   >     >    (Figure 2)
e|-3-3-3-3-3-3-3-3-3-3-X-X-1-1-1-1-|-X-0-0-X-X-0-0-3----------------|
B|-0-0-0-0-0-0-0-0-0-0-X-X-3-3-3-3-|-X-1-1-X-X-1-1-0----------------|
G|-0-0-0-0-0-0-0-0-0-0-X-X-2-2-2-2-|-X-2-2-X-X-0-0-0----------------|
D|-0-0-0-0-0-0-0-0-0-0-X-X-0-0-0-0-|-X-3-3-X-X-2-2-0----------------|
A|-2-2-2-2-2-2-2-2-2-2-X-X---------|-------X-X-3-3-2----------------|
E|-3-3-3-3-3-3-3-3-3-3-X-X---------|---------------3-3--------------|

Figure 1:
e|-----------|
B|-----------|
G|-----3^----|
D|-0-2-------|
A|-----------|
E|-----------|

Figure 2:
e|------------------|
B|------------------|
G|-----3^-2-----3^0-|
D|-0-2------3-2-0-2-|
A|------------------|
E|------------------|

That about it....

New Version:
Capo on 3rd fret(bar 3rd fret)

Intro(Repeat x4)/riff1:
   E                    D        C       E
       >   >   >   >        >        >
e|-0-0-0-0-0-0-0-0-0-0--3-3-3-3--0-0-0-0--0-|
B|-0-0-0-0-0-0-0-0-0-0--2-2-2-2--1-1-1-1--0-|
G|-1-1-1-1-1-1-1-1-1-1--3-3-3-3--0-0-0-0--1-|
D|-2-2-2-2-2-2-2-2-2-2--0-0-0-0--2-2-2-2--2-|
A|-2-2-2-2-2-2-2-2-2-2-----------3-3-3-3--2-|
E|-0-0-0-0-0-0-0-0-0-0--------------------0-|

Figure 1:
e|-----------|
B|-----------|
G|-----0-----|
D|-------0---|
A|-0h2-------|
E|-----------|

Main Riff(Repeats x times):
   E
       >   >   >   >        >   >   >
e|-0-0-0-0-0-0-0-0-0-0--2-2-2-2-2-2-2-2----|
B|-0-0-0-0-0-0-0-0-0-0--2-2-2-2-2-2-2-2-p2-|
G|-1-1-1-1-1-1-1-1-1-1--2-2-2-2-2-2-2-2----|
D|-2-2-2-2-2-2-2-2-2-2--0-0-0-0-0-0-0-0----|
A|-2-2-2-2-2-2-2-2-2-2---------------------|
E|-0-0-0-0-0-0-0-0-0-0---------------------|

Guitar Solo:
e|-------------------------------------------------------|Repeats x2
B|-----p2---------------p2-------------------p2----------|
G|-0h2-p2--------0--0h2-p2-------2-2~-0--0h2-p2-0p2-2~-0-|
D|-0h2----0p2-2~-0--0h2----0p2-2-0-0--0--0h2-----------0-|
A|-------------------------------------------------------|
E|-------------------------------------------------------|

then play:
e|----------------------------------|
B|-----p2---------------p2--------0-|
G|-0h2-p2--------0--0h2-p2--------0-|
D|-0h2----0p2-2~-0--0h2----0p2-2~-0-|
A|----------------------------------|
E|----------------------------------|

Listen to song for Repeats

3. Hot to Death
================

Intro(x4):
e|-----------------------------------------------|
B|-----------------------------------------------|
G|-----------------------------------------------|
D|-----------------------------------------------|
A|-0-0--0-9--0--8--0--7--0-0--8--0--7--0--6-6h/5-|
E|-0-0--0-7--0--6--0--5--0-0--6--0--5--0--4-4h/3-|

Riff 1:
e|----------------------------------------|Pause 
B|----------------------------------------|before
G|----------------------------------------|repeating.
D|----------------------------------------|
A|----------------------------------------|
E|-0-0-7p-6p-5p-4h(p)-0-0--6p-5p-4p-3h(p)-|

Riff 2(Same as Riff 3 and intro excpet play slower(x2)):
e|-----------------------------------------------|
B|-----------------------------------------------|
G|-----------------------------------------------|
D|-----------------------------------------------|
A|-0-0--0-9--0--8--0--7--0-0--8--0--7--0--6-6h/5-|
E|-0-0--0-7--0--6--0--5--0-0--6--0--5--0--4-4h/3-|

Riff 3(same as Intro, Riff 2):
e|-----------------------------------------------|
B|-----------------------------------------------|
G|-----------------------------------------------|
D|-----------------------------------------------|
A|-0-0--0-9--0--8--0--7--0-0--8--0--7--0--6-6h/5-|
E|-0-0--0-7--0--6--0--5--0-0--6--0--5--0--4-4h/3-|

Riff 4(Play Slower and slower till song ends):
e|----------------------------------------|No Pause 
B|----------------------------------------|before
G|----------------------------------------|repeating.
D|----------------------------------------|
A|----------------------------------------|
E|-0-0-7p-6p-5p-4h(p)-0-0--6p-5p-4p-3h(p)-|


4. Today ( Watch me shine )
============================

Intro:
e|--------|when you play the A2 
B|--------|mute while pulling off.
G|--------|
D|------0-|
A|-0-2p---|
E|--------|
     x

Main Part:( Repeats throught out song )

   E         G      C      A
        >    >        >     >       >   >         >
e|-0--0-0--X-X-X--3-3-3--X-X-X--3-3-3-X-X-X--5-5-5-|
B|-0--0-0--X-X-X--3-3-3--X-X-X--5-5-5-X-X-X--5-5-5-|
G|-1--1-1--X-X-X--4-4-4--X-X-X--5-5-5-X-X-X--6-6-6-|
D|-2--2-2--X-X-X--5-5-5--X-X-X--5-5-5-X-X-X--7-7-7-|
A|-2--2-2--X-X-X--5-5-5--X-X-X--3-3-3-X-X-X--7-7-7-|
E|-0--0-0--X-X-X--3-3-3--X-X-X--3-3-3-X-X-X--5-5-5-|

Electric Guitar part:

   G   A     G   A     G C A   A

e|-3-3/5-5---3-3/5-5---3-3-5-7-5-|
B|-3-3/5-5---3-3/5-5---3-5-5-7-5-|
G|-4-4/6-6---4-4/6-6---4-5-6-8-6-|
D|-5-5/7-7---5-5/7-7---5-5-7-9-7-|
A|-5-5/7-7---5-5/7-7---5-3-7-9-7-|
E|-3-3/5-5---3-3/5-5---3-3-5-7-5-|


5. 7 Years
===========

Intro:
e|---------------------------------|
B|---------------------------------|
G|---------------------------------|
D|---------------------------------|
A|-----1-3-5---3-1-3-1---------1-3-|
E|-3-3-----------------3---3-3-----|


Riff1:
   G7            D7
        >   >         >   >
e|-3--3-3-3-3-3--5--5-5-5-5-5-|Repeats
B|-3--3-3-3-3-3--7--7-7-7-7-7-|Throughtout whole 
G|-4--4-4-4-4-4--5--5-5-5-5-5-|song
D|-3--3-3-3-3-3--7--7-7-7-7-7-|
A|-5--5-5-5-5-5--5--5-5-5-5-5-|
E|-3--3-3-3-3-3--5--5-5-5-5-5-|


Riff2:("I've been up, and i've been down......")
   G7             F
        >   >              
e|-3--3-3-3-3-3---1/3-|Repeat x7
B|-3--3-3-3-3-3---1/3-|Then back to 
G|-4--4-4-4-4-4---2/4-|Riff1
D|-3--3-3-3-3-3---3/5-|
A|-5--5-5-5-5-5---3/5-|
E|-3--3-3-3-3-3---1/3-|


6. Get down
============
Capo on 3rd fret(bar the 3rd fret)

Intro:
       >   >     >   >     >   >
e|-----0-0-0-----0-0-0-----0-0-0---------|Repeat x4
B|-----3-3-3-----3-3-3-----3-3-3---------|
G|-0-0-------2-2-------3-3-------0-3-2-0-|
D|---------------------------------------|
A|---------------------------------------|
E|---------------------------------------|

Main Riff:
   Em                             
       > > > > >
e|-0-0-0-0-0-0-0----|
B|-0-0-3-3-3-3-3-2\-|
G|-0-0--------------|
D|-2-2--------------|
A|-2-2--------------|
E|------------------|

Mainly, this song is these two riffs repeating.
Suggest correction
Give kudos to tab author, rate the tab!
1 2 3 4 5
comments
print report bad tab
guest
You may want to rate the tab now too:
select rating
Please do not post tabs as comments. Select "correction" instead!