Oops, an error
Loading. Please wait.

Letters Home From The Garden Of Stone Tab

version 1
version 1

Whole song

4,242 views 9 this week
no commentswrite comment
1 2 3 4 5
please rate
add to favorites
launch autoscroll
font size
0
reset
how to read this tab
guitar tuner
Autoscroll
slow
fast
+/-
esc
set tempo
stop
Help us to improve Ultimate-Guitar.com Take our survey!
×
Author
Acoustic part:

e|------------------------------------------------|
B|------------------------------------------------|
G|---------9---------7---------7------------------|
D|-------9---------9---------7--------5^7^5-------|
A|-----7-----7--10-----10--5-----5/7--------7-----|
E|------------------------------------------------|

e|------------------------------------------------|
B|------------------------------------------------|
G|---------9---------7---------7------------------|
D|-------9---------9---------7--------------------|
A|-----7-----7--10-----10--5-----5/7--------------|
E|------------------------------------------------|

Outro:

e|----14---10---12--------------------------------|
B|------------------10^12------10/12--------------|
G|------------------------------------------------|
D|------------------------------------------------|
A|------------------------------------------------|
E|------------------------------------------------|


e|----14---10---12--------------------------------|
B|------------------10------12--------------------|
G|------------------------------------------------|
D|------------------------------------------------|
A|------------------------------------------------|
E|------------------------------------------------|


I'm sorry but i can't find the intro part...



Tab by AM/PM      asthewormturns@hotmail.it

Suggest correction
Give kudos to tab author, rate the tab!
1 2 3 4 5
comments
print report bad tab
guest
You may want to rate the tab now too:
select rating
Wanna post a correction for this tab? Suggest correction