Oops, an error
Loading. Please wait.

Lonely Road Tab

version 1
version 1

Whole song

11,924 views 30 this week
2 commentsread comments
1 2 3 4 5
x 7
add to favorites
launch autoscroll
font size
0
reset
how to read this tab
guitar tuner
×
Best way to learn
"Lonely Road"
Autoscroll
slow
fast
+/-
esc
set tempo
stop
EVERLAST - Lonely Road
Tabbed by: TJ Urbanski

July 18, 2004

Standard Tuning
E A D G B e

CHORDS : D C# B A

MAIN RIFF
       D             C#          B           A
e|-------------------------------------------------------------------------|
B|-------------------------------------------------------------------------|
G|-------------------------------------------------------------------------|
D|-------------------------------------------------------------------------|
A|---------9------9-----9-----9-----9-----9-----7--------------------------|
E|-----10-----10-----9-----9-----7-----7-----5-----5 / 10------------------|

This is played throughout the whole song.


INTRO RIFF
e|-------------------------------------------------------------------------|
B|-----7--3--5--7----------------------------------------------------------|
G|-------------------------------------------------------------------------|
D|-------------------------------------------------------------------------|
A|-------------------------------------------------------------------------|
E|-------------------------------------------------------------------------|

Solo
e|-----10--7--5--7----5--7----5--7-----0-----------------------------------|
B|----------------------------------7-----3----0--3--0--5br----0--5--0--3--|
G|-------------------------------------------------------------------------|
D|-------------------------------------------------------------------------|
A|-------------------------------------------------------------------------|
E|-------------------------------------------------------------------------|

For the chorus just strum the chords.
Suggest correction
comments
print report bad tab
2 comments total.
0 reply
linghoejohnson9 1,076 Nov 08, 2009 07:14 PM

Missed a piece, the whole ti=hing goes:

INTRO RIFF
e|-------------------------------------------------------------------------|
B|-----7--3--5--7------------------------7-3-5-0---------------------------|
G|-------------------------------------------------------------------------|
D|-------------------------------------------------------------------------|
A|-------------------------------------------------------------------------|
E|-------------------------------------------------------------------------|

0 reply
Ace Swag 32 Dec 24, 2014 08:59 AM

Great tab, hard to find this song

guest
You may want to rate the tab now too:
select rating
Wanna post a correction for this tab? Suggest correction