Oops, an error
Loading. Please wait.

Lonely Road Tab

version 2
version 2

Whole song

33,282 views 45 this week
6 commentsread comments
1 2 3 4 5
x 11
add to favorites
×
Save as Personal and add changes to this tab that will be seen only by you. Learn more ›
×
You can save this tab as Personal to edit and correct it or add notes. All changes will be seen only by you. Learn more »
save as personal
new!
launch autoscroll
font size
0
reset
how to read this tab
guitar tuner
Autoscroll
slow
fast
+/-
esc
set tempo
stop
Author
Tuning: E A D G H e

[Chords]
   D   F#m   Bm   A     G
e|-2-|-2---|-2--|-0---|-3-|
B|-3-|-2---|-3--|-2---|-3-|
G|-2-|-2---|-4--|-2---|-0-|
D|-0-|-4---|-4--|-2---|-0-|
A|---|-4---|-2--|-0---|-2-|
E|---|-2---|----|-----|-3-|

[Intro/Verse Riff]
       D             F#m         Bm          A
e|-------------------------------------------------------------------------|
B|-------------------------------------------------------------------------|
G|-------------------------------------------------------------------------|
D|-------------------------------------------------------------------------|
A|---------9------9-----9-----9-----9-----9-----7------5-------------------|
E|-----10-----10-----9-----9-----7-----7-----5-----5h7---------------------|

(Play this in Verse)

[Intro] 
(Git. 2)
e|-------------------|
B|-----7--3--5--7----|
G|-------------------|
D|-------------------|
A|-------------------|
E|-------------------|

[Chorus]
 D       F#m Bm          G
I walk along the lonely road
D           F#m
My back is strong, girl
Bm            G
I'll carry the load
D          F#m
I'm on the grind in time
     Bm                    G
I'll pay the debt that's owed
 D       F#m        Bm   G
I walk along the lonely road

[Solo]
e|--10--7--5--7---5-7----5--7-----------------------------------------|
B|------------------------------7--5---3----------3--5br--0--3--0--3--|
G|------------------------------------------2--4----------------------|
D|--------------------------------------------------------------------|
A|--------------------------------------------------------------------|
E|--------------------------------------------------------------------|


************************************

| h   Hammer-on
| br  Bend release

************************************
Suggest correction
comments
print report bad tab
6 comments total. Showing first comments.
0 reply
Saftcheck 155 Jan 10, 2007 05:03 AM

little mistake at the end of the solo...

e|--10--7--5--7---5-7----5--7----------------------------------------|
B|------------------------------7--5---3----------3--5br-0--3--0--3--|
G|------------------------------------------2--4---------------------|
D|-------------------------------------------------------------------|
A|-------------------------------------------------------------------|
E|-------------------------------------------------------------------|

0 reply
Saftcheck 155 Jan 11, 2007 05:00 AM

...and play G instead of A in the Chorus^^...sorry :P

0 reply
rich1710 10 Feb 23, 2007 04:28 AM

didnt know there was a H note :S

guest
You may want to rate the tab now too:
select rating
Wanna post a correction for this tab? Suggest correction