Oops, an error
Loading. Please wait.

Pain Tab

version 2
version 2

Whole song

358 views 1 this week
no commentswrite comment
1 2 3 4 5
please rate
add to favorites
launch autoscroll
font size
0
reset
how to read this tab
guitar tuner
Autoscroll
slow
fast
+/-
esc
set tempo
stop
Help us to improve Ultimate-Guitar.com Take our survey!
×
----------------------------------------------------------------------------
                             PAIN - Everlast
----------------------------------------------------------------------------

Tabbed by: ChrisCross
Email: wildwolf86@gmail.com

Tuning: Standard

I took the version of Titus and corrected it :)
Hope it doesn't bother him. (was a bit too much for a comment)

  Verse and prechorus

  Em         G          B5           A sus2

e|0--0-0-0-0-3--3-3-0-0---------------------------|
B|0--0-0-0-0-0--0-0-0-0(0)-----x-x---0------------|
G|0--0-0-0-0-0--0-0-0-0-3--3-3-x-x---2--0h2-0-----|
D|2--2-2-0-0-0--0-0-0-0-3--3-3-x-x---2--0h2-0-----|
A|2--2-2-0-0-2--2-2-0-0-2--2-2-x-x---0--0---0-----|
E|0--0-0-0-0-3--3-3-0-0-x--x-x-x-x---x--x---------| 


  Chorus

   E   F#5  G5             A sus2

e|-----------------------------|
B|-----------------------------|
G|-------------------------2---|
D|-2--2-4-5--5-4-2--2-4-5--2---|
A|-2--2-4-5--5-4-2--2-4-5--0---|
E|-0--0-2-3--3-2-0--0-2-3------|



  after Chorus: just some strumming in Em which ends with high e (1:1 from Titus)

e|------------0---|-----------------0-|
B|--------------0-|-----------------0-|
G|------0---0-----|----------0--------|
D|---2------------|------2-----2------|
A|-2---2--2-------|--------2------2---|
E|----------------|-b3p0--------------|

   Bridge
   D D D D D D D D D D D D D    U D    U D  D
e|------------------------------------------------------------|
B|------------------------------------------------------------|
G|------------------------------------------------------------|
D|-2-2-2-2-5-5-5-5-7-7-7-7-8\7-7-7\5--5-5--2------------------|
A|-2-2-2-2-5-5-5-5-7-7-7-7-8\7-7-7\5--5-5--2...---------------|
E|-0-0-2-0-3-3-5-3-5-5-5-5-6\5-5-5\3--3-3--0------------------|



  Guitar II w/ Dist. Fills:

e|-----7--10-7--|----------------|-----7--10-7----------------|
B|-5-8----------|-10b-10-8-10-8--|-5-8----------8--10--8b8-5--|
G|--------------|----------------|----------------------------|
D|--------------|----------------|----------------------------|
A|--------------|----------------|----------------------------|
E|--------------|----------------|----------------------------|






| /  slide up
| \  slide down
| h  hammer-on
| p  pull-off
| ~  vibrato
| +  harmonic
| x  Mute note
===========================================================================
Suggest correction
Give kudos to tab author, rate the tab!
1 2 3 4 5
comments
print report bad tab
guest
You may want to rate the tab now too:
select rating
Please do not post tabs as comments. Select "correction" instead!