Oops, an error
Loading. Please wait.

Sleepin Alone intro tab

1,912 views 1 this week
3 commentsread comments
1 2 3 4 5
x 3
add to favorites
×
Save as Personal and add changes to this tab that will be seen only by you. Learn more ›
×
You can save this tab as Personal to edit and correct it or add notes. All changes will be seen only by you. Learn more »
launch autoscroll
font size
0
reset
how to read this tab
guitar tuner
edit
Autoscroll
slow
fast
+/-
esc
set tempo
stop
Author
Difficulty
Artist: Everlast
Song: Sleepin Alone

I was messing around and thought this sounded like the intro to Sleepin Alone.  This one 
my favorite songs on the album.  I really like Everlast's accoustic sound.  Good stuff.


e|----------------------------------|
B|-----6-------1-0------6-------1-0-|
G|---5-------2-----0--5-------2-----|
D|-7-----0-3--------7-----0-3-------|
A|----------------------------------|
E|----------------------------------|

            
            
Suggest correction
Creating personal tab
Creating personal tab
You can edit any tab online and save it as your Personal.

You can edit, replace or remove any tab part or add personal notes – all changes will be seen only by you.

Personal tabs can be accessed anytime from any device, even offline.
Learn more »
Give kudos to tab author, rate the tab!
1 2 3 4 5
comments
print report bad tab
3 comments total.
0 reply
Jabbobb 22 Feb 05, 2008 02:52 AM

You twisted the Second and the third Note. The rest is perfect :) Good job
This sounds correct:
e|----------------------------------|
B|-----5-------1-0------5-------1-0-|
G|---6-------2-----0--6-------2-----|
D|-7-----0-3--------7-----0-3-------|
A|----------------------------------|
E|----------------------------------|

0 reply
NeonDion 16 May 24, 2008 03:47 PM

Jabbobb brought this correction to my attention. Thanks.

e|----------------------------------|
B|---5---------1-0----5---------1-0-|
G|-----6-----2-----0----6-----2-----|
D|-7-----0-3--------7-----0-3-------|
A|----------------------------------|
E|----------------------------------|

0 reply
NeonDion 16 May 24, 2008 03:48 PM

Jabbobb brought this correction to my attention. Thanks.

e|----------------------------------|
B|---5---------1-0----5---------1-0-|
G|-----6-----2-----0----6-----2-----|
D|-7-----0-3--------7-----0-3-------|
A|----------------------------------|
E|----------------------------------|

guest
You may want to rate the tab now too:
select rating
Wanna post a correction for this tab? Suggest correction